Vanessa Carlton
PĂĄgina inicial > Pop/Rock > V > Vanessa Carlton > A Thousand Miles (tablatura)

A Thousand Miles (tablatura)

Vanessa Carlton


verse
G -----------------------------
D -----------------------------
A -----2-----------2----2---2--
E -0-2--0------0-2--0--2-0-2---

G -----------------------------
D -----------------------------
A -----2-----------2----2---2--
E -0-2--0------0-2--0--2-0-2---

pré-refrão
G -----------------------------
D -----------------------------
A ----2------------------------
E 0-2--------------------------

G -----------------------------
D -----------------------------
A ----2------------------------
E 0-2--------------------------

G -----------------------------
D -----------------------------
A ----2------------------------
E 0-2-----0-2------------------

refrĂŁo

G -----------------------------
D -----------------------------
A -----2-----------------------
E -0-2--0----------------------

G -----------------------------
D -----------------------------
A ------------2----------------
E ----------2---0--------------

G -----------------------------
D -----------------------------
A ------------2----------------
E ----------2---0--------------

G -----------------------------
D -----------------------------
A ---------------------2---2---
E ---4H6-2--0--------2--0-2--0-

verse
pré-refrão
refrĂŁo

bridge

G -----------------------------
D -----------------------------
A ------2-------4--------------
E -4H6------------------------

G -----------------------------
D -----------------------------
A ------2-------4--------------
E -4H6------------------------

G -----------------------------
D -----------------------------
A ------2----------------------
E -4H6------------------------

verse
pre-refrĂŁo
refrĂŁo (2x)

final

G -----------------------------
D -----------------------------
A --2------1-----1-------------
E -2-0---2--0--2---2-----------

Encontrou algum erro na letra? Por favor, envie uma correção >

Compartilhe
esta mĂșsica

Ouça estaçÔes relacionadas a Vanessa Carlton no Vagalume.FM

ÚLTIMAS

ESTAÇÕES

ARTISTAS RELACIONADOS