Página inicial > Heavy Metal > S > System of a Down > Spiders (tablatura)

Spiders (tablatura)

System of a Down


Versão 1
-======-

INTRODUÇÃO/VERSOS:

D|------------------------------|
A|------------------------------|
F|------------------------------|
C|------------------------------|
G|-----9----9----7----7---7---7-|
C|--0-----0----0----0-----------|

D|------------------------------|
A|------------------------------|
F|------------------------------|
C|------------------------------|
G|-----9----9----7----7---7--7--|
C|--0-----0----0----0-----------|

D|-------------------------------|
A|-------------------------------|
F|-------------------------------|
C|-------------------------------|
G|-----10----9----12----10---9h10
C|--0-----0----0-----0----0------|

D|------------------------------|
A|------------------------------|
F|------------------------------|
C|------------------------------|
G|-----9----10----7-------------|
C|------------------------------|

CHORUS:

D|-----------------------------------------|
A|-----------------------------------------|
F|-----------------------------------------|
C|-----------------------------------------|
G|--10--10--10--10-10-10-10-10--10--10-10--|
C|--10--10--10--10-10-10-10-10--10--10-10--|

D|-----------------------------------------------|
A|-----------------------------------------------|
F|-----------------------------------------------|
C|-----------------------------------------------|
G|--10-10-10-10-10--10-10--10-10-10-10-10-10-10--|
C|--10-10-10-10-10--10-10--10-10-10-10-10-10-10--|

D|----------------------------------|
A|----------------------------------|
F|-----14---12---15----14----12/14--|
C|------x----x----x-----x-----x-----|
G|-----12---10---13----12----10/12--|
C|--0----------------0-----0--------|

D|------------------------------------------|
A|------------------------------------------|
F|-----12---12/14--10-10-10-10-10-10-10-10--|
C|------x----x------x--x--x--x--x--x--x--x--|
G|-----10---10/12---8--8--8--8--8--8--8--8--|
C|--0---------------------------------------|

D|-----------------------------------------|
A|-----------------------------------------|
F|-----------------------------------------|
C|-----------------------------------------|
G|--10--10--10--10-10-10-10--10-10--10-10--|
C|--10--10--10--10-10-10-10--10-10--10-10--|

D|----------------------------------|
A|----------------------------------|
F|----------------------------------|
C|----------------------------------|
G|--8-8-8-8-8--8-8-7-7-7-7-7-7-7-7--|
C|--8-8-8-8-8--8-8-7-7-7-7-7-7-7-7--|

GUITAR SOLO:

hit each chord multiple times

D|----------------------------------------------|
A|----------------------------------------------|
F|--14------15------18------14------15------18--|
C|---x-------x-------x-------x-------x-------x--|
G|--12------13------16------12------13------16--|
C|----------------------------------------------|

then play the chords below multiple times each, but
alternate between the note played by the first finger
and the note played by the third finger

D|----------------------------------------------| |---------------|
A|----------------------------------------------| |---------------|
F|--19------20------18------19------20------18--| for |-----19----19--|
C|---x-------x-------x-------x-------x-------x--| example |---------------|
G|--17------18------16------17------18------16--| |--17----17-----|
C|----------------------------------------------| |---------------|

OUTRO:

D|--------------------------------|
A|--------------------------------|
F|----10----9----12---10----9/10--|
C|-----x----x-----x----x----x-----|
G|-----8----7----10----8----7/-8--|
C|--0-----0----0-----0----0-------|

D|--------------------------------|
A|--------------------------------|
F|-----9----9/10---7----7----7-7--|
C|-----x----x------x----x----x-x--|
G|-----7----7/-8---5----5----5-5--|
C|--0-----0-----------0---0-------|

D|----------------------------------|
A|----------------------------------|
F|-----14---12---15----14----12/14--|
C|------x----x----x-----x-----x-----|
G|-----12---10---13----12----10/12--|
C|--0----------------0-----0--------|

D|---------------------|
A|---------------------|
F|-----12---12/14--10--|
C|------x----x------x--|
G|-----10---10/12---8--|
C|--0------------------|



_______________________________________________________
Contribuição: Francimar Luciano dos Santos(chicomar@ibest.com.br)




Versão 2
-======-

Bass Intro for elecltric guitar

Eb------------------------------------------------------------
Bb------------------------------------------------------------
Gb------------------------------------------------------------
B----2-2---0-0-0-----2-2---0-0-0----3-2-5-3-2/3--2-2--0-0-0---
Gb------------------------------------------------------------
B--0--0--0--0--0--00--0--0--0-0--00--0-0-0-0-0--0-0-0--0-0--00

Electric Guitar(same tuning)

Fig1
B--10101010101010101010101010101010
Gb-10101010101010101010101010101010 "Through my head,through my head"
B--10101010101010101010101010101010

Eb---------------------------------
Bb---------------------------------
Gb--8-7-10-8-7/8--7-7/8-5-5-5------

B--1010101010101010--8888-7777--
Gb-1010101010101010--8888-7777-- "Before you know,awake"
B--1010101010101010--8888-7777-0

fig2
B--9-9--7-7-7---9-9--7-7-7------ "Your lives are open wide"
Gb-7-7--5-5-5---7-7--5-5-5------ "The spiders all in tune"

Eb---------------------------- "All the life running....."
Bb--8-6-9-8--6b8---6-6b8-44444 "Dreams are made widning.."

Solo's (best if used with wah)
Bb--1313131313131313/14141414141414/17171717171717
Gb--1212121212121212/13131313131313/16161616161616

Bb---13-13-13-13-13-13-13-13---14-14-14-14---12-12-12-12
Gb--12-12-12-12-12-12-12-12---13-13-13-13---11-11-11-11-

Ending
B--9-9--7-7-77---9-9--7-77
Gb-7-7--5-5-55---7-7--5-55

Bb------------------------
Gb---8-7-10-8-7/8--7-7/8-5

Eb------------------------
Bb--8-6-9-8--6b8---6-6b8-4


Compositor: Nath Bourdon

Encontrou algum erro na letra? Por favor, envie uma correção >

Compartilhe
esta música

Ouça estações relacionadas a System of a Down no Vagalume.FM

ÚLTIMAS

MIX DE MÚSICAS

ARTISTAS RELACIONADOS