Página inicial > Heavy Metal > S > System of a Down > Revenga (tablatura)

Revenga (tablatura)

System of a Down


Nessa música colokei os tempos para ajudar a tocar kem tem mais
dificuldadis, mas pra kem manja toca system essa música é uma das
mais fáceis.

Introdução (00:00 - 00:12)
D:-----------5-------6-------6--5--4---
A:---6-------6-------7-------7--6--5---
F:---7-------7-------8-------8--7--6---
C:---7---------------------------------
G:---5---------------------------------
C:-------------------------------------

(00:13 - 00:26)
D:---------------------------------------------------
A:---------------------------------------------------
F:---------------------------------------------------
C:----------0-000---000---000---000---000-0--8-8-8---
G:----------0-000---000---000---000---000-0--8-8-8---
C:---14/0---0-000---000---000---000---000-0--8-8-8---
PM .................................
D:---------------------------------------------------
A:---------------------------------------------------
F:---------------------------------------------------
C:---0-000---000---000-0---880--880--880--880--------
G:---0-000---000---000-0---880--880--880--880--------
C:---0-000---000---000-0---880--880--880--880--------
PM ........................................
(00:27 - 00:40) "What do ya need to drink? Fading in the sink..."
D:-----------------------------------------------------------------------------------------
A:-----------------------------------------------------------------------------------------
F:-----------------------------------------------------------------------------------------
C:----------------------------------------11----------------------------11---12---11-9-7---
G:----------------------------------------11----------------------------11---12---11-9-7---
C:---00000---00000---00000---00000---0000-11-------00000---00000---0000-11---12---11-9-7---
PM .................................... ....................
D:-----------------------------------------------------------------------------------------
A:-----------------------------------------------------------------------------------------
F:-----------------------------------------------------------------------------------------
C:----------------------------------------11----------------------------11---12---14--15---
G:----------------------------------------11----------------------------11---12---14--15---
C:---00000---00000---00000---00000---0000-11--------0000---00000---0000-11---12---14--15---
PM .................................... ...................

Refrão ( Abafado ) (00:41 - 01:07) "Will be yours. For the taking. It's in the making."
D:-----------------------------------------------------------------------------------------
A:-----------------------------------------------------------------------------------------
F:-----------------------------------------------------------------------------------------
C:---0--000000--0--000000--7--777777--7--777777--8--888888--8--88-876--666666--3--333333---
G:---0--000000--0--000000--7--777777--7--777777--8--888888--8--88-876--666666--3--333333---
C:---0--000000--0--000000--7--777777--7--777777--8--888888--8--88-876--666666--3--333333---
PM ...... ...... ...... ...... ...... .. ...... ......

(01:08 - 01:21) "What do ya needa drink? Fading in the sink..."
D:-----------------------------------------------------------------------------------------
A:-----------------------------------------------------------------------------------------
F:-----------------------------------------------------------------------------------------
C:----------------------------------------11----------------------------11---12---11-9-7---
G:----------------------------------------11----------------------------11---12---11-9-7---
C:---00000---00000---00000---00000---0000-11-------00000---00000---0000-11---12---11-9-7---
PM .................................... ....................
D:-----------------------------------------------------------------------------------------
A:-----------------------------------------------------------------------------------------
F:-----------------------------------------------------------------------------------------
C:----------------------------------------11----------------------------11---12---14--15---
G:----------------------------------------11----------------------------11---12---14--15---
C:---00000---00000---00000---00000---0000-11--------0000---00000---0000-11---12---14--15---
PM .................................... ...................

Refrão 2 (01:22 - 01:48) "..revenge. Will be yours. For The Taking. It's..."
D:-----------------------------------------------------------------------------------------
A:-----------------------------------------------------------------------------------------
F:-----------------------------------------------------------------------------------------
C:---0--000000--0--000000--7--777777--7--777777--8--888888--8--88-876--666666--3--333333---
G:---0--000000--0--000000--7--777777--7--777777--8--888888--8--88-876--666666--3--333333---
C:---0--000000--0--000000--7--777777--7--777777--8--888888--8--88-876--666666--3--333333---
PM ...... ...... ...... ...... ...... .. ...... ......

(01:49 - 02:03) "Ahhhhhhhh..."
D:---------------------------------------------------
A:---------------------------------------------------
F:---------------------------------------------------
C:----------0-000---000---000---000---000-0--8-8-8---
G:----------0-000---000---000---000---000-0--8-8-8---
C:---14/0---0-000---000---000---000---000-0--8-8-8---
PM .................................
D:---------------------------------------------------
A:---------------------------------------------------
F:---------------------------------------------------
C:---0-000---000---000-0---880--880--880--880--------
G:---0-000---000---000-0---880--880--880--880--------
C:---0-000---000---000-0---880--880--880--880--------
PM ........................................

(02:04 - 02:31) " I saw her laugh..."
D:-----------5-------6-------6--5--4---
A:---6-------6-------7-------7--6--5---
F:---7-------7-------8-------8--7--6---
C:---7---------------------------------
G:---5---------------------------------
C:-------------------------------------

[Solo] [Distorted] (02:32 - 02:58)
D:---------------------------------------------------------------------------------------------
A:---------------------------------------------------------------------------------------------
F:---------7----------------------10-----------------------8--------------------7--------------
C:-------------7---------------------10----------------------8--------------------7------------
G:--------5------8--5-4-5-7-----8-------11--8-7-8-10-----6-----9--6-5-6-8-----5-----8--5-4-5---
C:---9/0---------------------------------------------------------------------------------------

(02:59 - 03:25) "Will be yours. For the taking. It's in te making."
D:-----------------------------------------------------------------------------------------
A:-----------------------------------------------------------------------------------------
F:-----------------------------------------------------------------------------------------
C:---0--000000--0--000000--7--777777--7--777777--8--888888--8--88-876--666666--3--333333---
G:---0--000000--0--000000--7--777777--7--777777--8--888888--8--88-876--666666--3--333333---
C:---0--000000--0--000000--7--777777--7--777777--8--888888--8--88-876--666666--3--333333---
PM ...... ...... ...... ...... ...... .. ...... ......

(03:26 - 3:33) "Ahhhhhh..."
D:-----------------------------------------------------------------------------------------
A:-----------------------------------------------------------------------------------------
F:-----------------------------------------------------------------------------------------
C:----------------------------------------11----------------------------11---12---11-9-7---
G:----------------------------------------11----------------------------11---12---11-9-7---
C:---00000---00000---00000---00000---0000-11-------00000---00000---0000-11---12---11-9-7---
PM .................................... ....................

(3:34 - 03:47)
D:---------------------------------------------------
A:---------------------------------------------------
F:---------------------------------------------------
C:----------0-000---000---000---000---000-0--8-8-8---
G:----------0-000---000---000---000---000-0--8-8-8---
C:---14/0---0-000---000---000---000---000-0--8-8-8---
PM .................................
D:---------------------------------------------------
A:---------------------------------------------------
F:---------------------------------------------------
C:---0-000---000---000-0---880--880--880--880--------
G:---0-000---000---000-0---880--880--880--880--------
C:---0-000---000---000-0---880--880--880--880--------
PM ........................................

Compositor: Nath Bourdon

Encontrou algum erro na letra? Por favor, envie uma correção >

Compartilhe
esta música

Ouça estações relacionadas a System of a Down no Vagalume.FM

ÚLTIMAS

MIX DE MÚSICAS

ARTISTAS RELACIONADOS