Página inicial > Heavy Metal > S > System of a Down > Psycho (tablatura)

Psycho (tablatura)

System of a Down


Afinação:(C,G,C,F,A,D)
D|---------------------------------------------------------------------|
A|-17-x-17-x-17-xx-17-x-17-xx-17-x-17-x-17-xx-15-x-15-xx-15-x-15-xx-15-|Repete quantas vezes
F|---------------------------------------------------------------------|for necessário.
C|---------------------------------------------------------------------|
G|---------------------------------------------------------------------|
C|---------------------------------------------------------------------|

D|------------------|-----|
A|-xx-15-xx-15-x-15-|-18^-|
F|------------------|-----|Repete quantas vezes for necessário.
C|------------------|-----|
G|------------------|-----|
C|------------------|-----|

Verso:1
D|--------------------|
A|--------------------|
F|--------------------|
C|-222--222--222--222-|2x
G|-222--222--222--222-|
C|-222--222--222--222-|

Verso:2
D|---------------------|
A|---------------------|
F|---------------------|
C|-2-xx-2-xx-2-xx-2-xx-|4x
G|-2-xx-2-xx-2-xx-2-xx-|
C|-2-xx-2-xx-2-xx-2-xx-|
Repete Verso:2

Verso:3
D|--------|
A|--------|
F|--------|
C|-0--3---|
G|-0--3---|
C|-0--3---|
Repete Verso:1
Repete Verso:2
Repete Verso:2
Verso:4
D|----------------|
A|----------------|
F|----------------|
C|-0---3---2--0-2-|
G|-0---3---2--0-2-|
C|-0---3---2--0-2-|

Verso:5
D|-------------------------------------------------------|
A|-9--9--9-9-9h10-9-7-7-9-10-12-10-9-10-9-77-7-7-7-7-7x9-|
F|-x--x--x-x-xxxx-x-x-x-x--x--x--x-x--x-x-xx-x-x-x-x-xxx-|
C|-6--6--6-6-6h7--6-4-4-6--7--9--7-6--7-6-44-4-4-4-4-4h6-|
G|-------------------------------------------------------|
C|-------------------------------------------------------|
Repete Verso:1
Repete Verso:5
Repete Verso:1
Repete Verso:2
Repete Verso:2
Repete Verso:4
Repete Verso:5
Repete Verso:1
Repete Verso:5
Repete Verso:1

D|-----------------------------------------------------|
A|-12--10-12-13--1212-13-12-10-11h12-10-9-9-10-12------|
F|-----------------------------------------------------|
C|-----------------------------------------------------|
G|-----------------------------------------------------|
C|-----------------------------------------------------|

D|---------------12----------------------------------------------------------------|
A|-10-12---10-12-----13-12-13-12-10h12h10-10^-12h11-10-99-9-10-9-9-10-12-10-9-10-9-|
F|---------------------------------------------------------------------------------|
C|---------------------------------------------------------------------------------|
G|---------------------------------------------------------------------------------|
C|---------------------------------------------------------------------------------|

D|--------------------------------------------------------------|
A|-12-12-12-12-12-12-10-12-13-13-13-12-13-12-10-10-10-10-10-10--|
F|---9--9--9--9--9--9--9--9--9--9--9--9--9--9--9--9--9--9--9--9-|
C|--------------------------------------------------------------|
G|--------------------------------------------------------------|
C|--------------------------------------------------------------|

D|---------------------------------------------------------------|
A|-12-12-10-9-9-10-12-12-12-12-12-12-10-12-12-12-12-12-12-10-12--|
F|---9--9--9-9-------9--9--9--9--9--9--9--9--9--9--9--9--9--9--9-|
C|---------------------------------------------------------------|
G|---------------------------------------------------------------|
C|---------------------------------------------------------------|

D|-10-10-10----------------------------------------|
A|----------12-13-12-10-10-10-10-10-10-12---10---9-|
F|---9--9--9--9--9--9--9--9--9--9--9--9---9----9---|
C|-------------------------------------------------|
G|-------------------------------------------------|
C|-------------------------------------------------|


Compositor: Nath Bourdon

Encontrou algum erro na letra? Por favor, envie uma correção >

Compartilhe
esta música

Ouça estações relacionadas a System of a Down no Vagalume.FM

ÚLTIMAS

MIX DE MÚSICAS

ARTISTAS RELACIONADOS