Página inicial > Heavy Metal > S > System of a Down > Cubert (tablatura)

Cubert (tablatura)

System of a Down


D|151515151515151515151515151515151515151515-|
A|------------------------------------------------------------|
F|------------------------------------------------------------|
C|------------------------------------------------------------|
G|------------------------------------------------------------|
C|------------------------------------------------------------|


D|-----------------------------------------------------------------------|
A|-----------------------------------------------------------------------|
F|-----------------------------------------------------------------------|
C|-----------------------------------------------------------------------|
G|--5555555555555555555555-5555555555555555555555555--|
C|--5555555555555555555555-5555555555555555555555555--|
Verso:1
D|------------------------------------------------------|
A|------------------------------------------------------|
F|---3---1----------------------------------------------|
C|-----4---3-------------------------------------------|
G|------------5555555555555555--------------------|
C|------------5555555555555555--------------------|
Verso:2
D|--------------------------|------------------------------|
A|--------------------------|-----------4x-----------------|
F|----------------------2x--|------------------------------|
C|----7---------8---7---6---|-----------------------------|
G|--5-5--7-8--5-6-4-5-3-4-6-|------55555555555555-|
C|--5----7-8--5---4---3---6-|------55555555555555--|
Repete Verso:1
Repete Verso:2
D|-------------------------------------------------------------------------------------|
A|-------------------------------------------------------------------------------------|
F|-------------------------------------------------------------------------------------|
C|-------------------------------------------------------------------------------------|
G|-4444444-4444444-5555555-5555555-4444444-4444444-555555-5555-5-|
C|-4444444-4444444-5555555-5555555-4444444-4444444-555555-5555-5-|



By:Bruno

Compositor: Serj Tankian e Daron Malakian

Letra enviada por

Encontrou algum erro na letra? Por favor, envie uma correção >

Compartilhe
esta música

Ouça estações relacionadas a System of a Down no Vagalume.FM

ÚLTIMAS

MIX DE MÚSICAS

ARTISTAS RELACIONADOS