Stone Sour
Página inicial > Rock > S > Stone Sour > Through Glass (tablatura)

Through Glass (tablatura)

Stone Sour


Intro:

e|--------------------------------------------------0--0--------------------
B|--0--0------------0------------------0------0--0--0--0--------------------
G|--------------------------------------------------0--0--------------------
D|--2--4-------5-------5----------5-------5---2--4--4--2--------------------
A|--3--5----7-----7-------7----7-----7--------3--5--5--2--------------------
E|--------0------------------0-------------------------0--------------------

e|--0-------0------0-0-0-0-0-0-0-0-0--0--0----------------------------------
B|--0-------0------0-0-0-0-0-0-0-0-0--0--0----------------------------------
G|--0-(X5)--0-(X5)-0-0-0-0-0-0-0-0-0--0--0---(REPEAT)-----------------------
D|--2-------4------5-5-5-5-5-5-5-5-5--4--2----------------------------------
A|--3-------5------7-7-7-7-7-7-7-7-7--5--3----------------------------------
E|-----------------0-0-0-0-0-0-0-0-0----------------------------------------

Daí é só ficar repetindo isso até o final

Encontrou algum erro na letra? Por favor, envie uma correção >

Compartilhe
esta música

Ouça estações relacionadas a Stone Sour no Vagalume.FM

ÚLTIMAS

ESTAÇÕES

ARTISTAS RELACIONADOS