Stone Sour
Página inicial > Rock > S > Stone Sour > Inside The Cynic (tablatura)

Inside The Cynic (tablatura)

Stone Sour


Artist: Stone Sour
Album: Freddy vs Jason Soundtrack
Song: Inside the Cynic
Guitarists: Jim Root and Josh Rand



Drop B

Intro
---------------
---------------
---------------
999-10-9-7-----
777-8--7-5-----
--------------- x3

---------------------------
---------------------------
---------------------------
---------------------------
7-8-7-5-7-8-7-5------------
---------------------------

---------------------------
---------------------------
---------------------------
---------------------------
7-8-7-5-8-7-5-3------------
---------------------------

Verse
-----------------------------------------------------------------------
-----------------------------------------------------------------------
-----------------------------------------------------------------------
-----------------------------------------------------------------------
---7-7-7--8-7-5--7-7-7-10-7-8--7-7-7--8-7-5---8-7-5-8-5-5h7------------
----------------------------------------------8-7-5-8-5-5h7------------
pm ........................................

Chorus
-------------------------------------------------
-------------------------------------------------
--------------------9-9--------------------------
-----9-9----9-9-----x-x--------------------------
-----7-7----7-7-----7-7--7-8-7-5--7-8-7-5--------
---2------2------2-------------------------------
pm ..................

-------------------------------------------------
-------------------------------------------------
--------------------10-10--------------------------
-----9-9----9-9-----x--x--------------------------
-----7-7----7-7-----8--8--7-8-7-5--8-7-5-3-------
---2------2------2-------------------------------
pm ................


Solo (ive got most of it but im not sure if its all correct so dont be like 'oh thats wrong hes an idiot')

-----------------------------------------------------------
-----------------------------------------------------------
-----------------------------------------------------------
--------------5-3-2-3-2h3p2--------------------------------
2-3-2-3-2h3p2---------------3-5-3-2-3-2h3p2----------------
--------------------------------------------3-5-3-2-3-2-0--


12-12-12-----------15p13p12------------------------------------------
---------12-12-12----------15p13p12----------------------------------
-----------------------------------16p14p13--------------------------
-------------------------------------------15p13p12------------------
---------------------------------------------------15p13p12----------
-----------------------------------------------------------15p13p12-

Interlude
------------------------------------
------------------------------------
------------------------------------
------------------------------------
---------------------------5--------
5~---8-7-8-7-87-5~---8-7-8----87-5~-

Outro
---------------------------
---------------------------
---------------------------
---------------------------
8-7-5-8-5-5h7--2-----------
8-7-5-8-5-5h7--2-----------



by Scott Mattes

Encontrou algum erro na letra? Por favor, envie uma correção >

Compartilhe
esta música

Ouça estações relacionadas a Stone Sour no Vagalume.FM

ÚLTIMAS

ESTAÇÕES

ARTISTAS RELACIONADOS