Página inicial > Pop/Rock > S > Simple Plan > Addicted (tablatura)

Addicted (tablatura)

Simple Plan


afinacao: DADGBE

Intro-guitar 1
E-----------14-13------
B-------14-------14----
G-----13--13-----------
D----------------------
A----------------------
D----------------------

Intro-guitar 2
E-------------------------------
B-------------------------------
G-----6-6666-666----------------
D-----6-6666-666-4-444-6-666----
A-----4-4444-444-4-444-6-666----
D----------------4-444-6-666----

Verse-guitar 1(after bass)
E--------------------------------------------------
B--------------------------------------------------
G-----------6-------6------------------------------
D-----------6-------6-(x2)-----4-------4-----444444
A-----------4-------4----------4-------4-(x2)444444
D------------------------------4-------4-----444444

Verse-guitar 2
E--------------------------------------------
B--------------------------------------------
G-----------6-------6------------------------
D-----66666-6-66666-6(x2)------4-------4-----
A-----44444-4-44444-4----44444-4-44444-4-(x2)
D------------------------44444-4-44444-4-----
Pm ----- ----- ----- -----

prechorus-guitar 1
E--------------------------
B---------4-----6----------
G---------3-----5----------
D-----------------4-444-6--
A-----------------4-444-6--
D-----------------4-444-6—

Prechorus-guitar 2
E--------------------------
B--------------------------
G--------------------------
D----1-111-3-333-4-444-6---
A----1-111-3-333-4-444-6---
D----1-111-3-333-4-444-6---

Chorus-guitar 1(x2)
E-----------------------------
B-----------------------------
G----6-6666-666-----6---------
D----6-6666-666-4-446-6-666---
A----4-4444-444-4-444-6-666---
D---------------4-44--6-666---

(x2)
E--------------------------
B-------4----4----4--------
G-------4----4----4--------
D----11---33---44---6-666--
A----11---33---44---6-666--
D----11---33---44---6-666--

Guitar 2(x2)
E-----------------------------
B-----------------------------
G----6-6666-666---------------
D----6-6666-666-4-444-6-666---
A----6-6666-666-4-444-6-666---
D---------------4-444-6-666---

E----------------------------------------------------------
B----------------------------------------------------------
G----------------------------------------------------------
D--1-111-3-333-4-444-6-666—1-111-4-444-6-666-6-666----4~---
A--1-111-3-333-4-444-6-666—1-111-4-444-6-666-6-666----4~---
D--1-111-3-333-4-444-6-666-1-111-4-444-6-666-6-666----4~---

intro
verse
prechorus-guitar 2 (x2)

guitar 1 plays this instead
E-------------------------------------------
B-----4----6----7-------------4----7--------
G-----3----5----6-------------3----6--------
D—-11---33—--44---6-6666—--11---44---6-6666-
A—-11---33—--44---6-6666---11---44---6-6666-
D—-11---33—--44---6-6666---11---44---6-6666-

chorus

bridge-(guitar 1 2x clean, both 2x distorted)
E-----------------------------------
B-----------------------------------
G---------------66x-----------------
D---44x-33x-11x-66x-44x-33x-11x-66x-(second time xxx6)
A---44x-33x-11x-44x-44x-33x-11x-66x-(clean xxx6)
D---44x-33x-11x-----44x-33x-11x-66x-( xxx6)

Bridge2-guitar 1(x2)
E-----------------------------------
B-----------------------------------
G-----------------------------------
D-----------------------------------
A---444-666-888-999-444-666-999-888-
D-----------------------------------
(x1)
E----------------------------------------
B----------------------------------------
G----------------------------------------
D---------------666-----666-888-10-10-10-
A---666-888-999-----999------------------
D----------------------------------------

Guitar 2
E-----------------------------------------------------
B-----------------------------------------------------
G-----------------------------------------------------
D-444444444444-666666666666-444444444444-666666666666-
A-444444444444-666666666666-444444444444-666666666666-
D-444444444444-666666666666-444444444444-666666666666-

E---------------------------------
B---------------------------------
G---------------------------------
D-111111-333333-444444-666xxx-----
A-111111-333333-444444-666xxx-----
D-111111-333333-444444-666xxx-----

chorus
intro

Compositor: Nath Bourdon

Encontrou algum erro na letra? Por favor, envie uma correção >

Compartilhe
esta música

Ouça estações relacionadas a Simple Plan no Vagalume.FM

ÚLTIMAS

MIX DE MÚSICAS

ARTISTAS RELACIONADOS