Página inicial > Rock Alternativo > R > Red Hot Chili Peppers > The Power Of Equality (tablatura)

The Power Of Equality (tablatura)

Red Hot Chili Peppers


I've got a soul...
-------------------------------|-----------------------------------|
-------------------------------|-----------------------------------|
--9-----8-------7\-------------|------6----------------5---6----6--|
--------------------------0----|-5/7--------------0----------------|

---------------------------------------|----------------------------------|
---------------------------------------|----------------------------------|
-------6---------5--6----6---9---8---7-|------6---------4--6------5---6--4|
-5/7--------0--------------0-----------|-5/7--------0----------0----------|

-----------------------------------------|-----------------------------------|
-----------------------------------------|-----------------------------------|
-------6--------4---6-----9---8---7------|------6---------------5---6---6----|
-5/7--------0-------------------------0--|-5/7-----------0-------------------|

-----------------------------------------|-----------------------------------------|
-----------------------------------------|-----------------------------------------|
---------6--------5---6---6---9---8---7--|-------6-------4--6---------5-----6---4--|
--5/7---------0-------------0------------|--5/7-------0------------0---------------|

-------------------------------------------|---------------------------------|
-------------------------------------------|---------------------------------|
--------6---------4--6-----9--8---7--------|--------6------------5---6---6---|
--5/7---------0-------------------------0--|--5/7------------0---------------|

--------------------------------------------|-----------------------------------------|
--------------------------------------------|-----------------------------------------|
--------6---------5---6---6-----9----8---7--|--------6--------4---6-------5----6---4--|
--5/7---------0--------------0--------------|--5/7--------0-----------0---------------|

---------------------------------|-----------------6-----6--------9-------------------|
---------------------------------|----------------------------------------------------|
--5---5---5---5---5---5---5---5--|--3/4--4--4---4-----4-----/7----------7-------------|
---------------------------------|------------------------------------------0---5--4--|

-------------X--X----------------|-----------------6-----6--------9-------------------|
---------------------------------|----------------------------------------------------|
-------------------2-------3-----|--3/4--4--4---4-----4-----/7----------7-------------|
--3------------------------------|------------------------------------------0---5--4--|

-----------X--X---------------|
------------------------------|
-----------------2---------3--|
------------------------------|


By: Lana Schuster :)

Encontrou algum erro na letra? Por favor, envie uma correção >

Compartilhe
esta música

Ouça estações relacionadas a Red Hot Chili Peppers no Vagalume.FM

ÚLTIMAS

MIX DE MÚSICAS

ARTISTAS RELACIONADOS