Wipe Out

Raimundos

Lapadas do Povo


Afine a 6a. corda em D(1 tom abaixo)
/ =>Deslizar de uma nota p/outra
p.m. =>(palm muted)Corda/Nota Abafada

Intro:
e|---0----0--|
B|--3----3---|
G|------2----|
D|-0---0-----|
A|-----------|
D|-----------|

Riff1(2X)
e|-------------------------|
B|-------------------------|
G|-------------------------|
D|-------------------------|
A|-2-5-7-5-7/9-9--2-5-7-5--|
D|-2-5-7-5-7/9-9--2-5-7-5--|
|---3 vezes---|

Riff2(4X)
e|---------------------------------|
B|---------------------------------|
G|---------------------------------|
D|---------------------------------|
A|-0-2-0-2-0-2-0-2-0-2-0-2-0-2/5-2-|
D|-0-2-0-2-0-2-0-2-0-2-0-2-0-2/5-2-|

"Corte na vala moleque doido rasgando feito uma bala
O toco podre roda o leque e se dormir lá dentro o sono some
É no barril que a gente esquece do nome
Que o couro come e o pau rela no chão que rala
Pra entrar você não é tão forte quanto pensa
A reza é braba Iemanjá foi quem mandou a bença
Para te lavar chegou a sua vez de ir pro fundo
Pegue ar e se prepare pra acordar em outro mundo"

(riff1)(2X)
"Wipe Out eu não consigo varar
Wipe Out é a maquina de lavar
Wipe Out eu te falei que a bancada aqui é rasa
Wipe Out eu não consigo varar
Wipe Out a betoneira do mar
Wipe Out bate uma foto, eu preciso de uma foto"

(riff2)(4X)
"Se eu fosse você botava pra baixo ia lascar o peito no deck da frente
Cortava mostrando os dentes com o pé na cabeça braço nas costas
Eu te falei que eu só deixo ficar aqui gente que gosta
A diversão é o principal, a seleção é natural
Pra ficar com a mente limpa uma lavada com água e sal
Pensa logo, corre logo e vare antes que ela cresça
Me mandaram jogar mais uma série na sua cabeça"

(riff1)(2X)
"Wipe Out eu não consigo varar
Wipe Out é a maquina de lavar
Wipe Out eu te falei que a bancada aqui é rasa
Wipe Out eu não consigo varar
Wipe Out a betoneira do mar
Wipe Out bate uma foto, eu preciso de uma foto"

Riff3(8X)
e|-------------------------------------|
B|-------------------------------------|
G|-------------------------------------|
D|-------------------------------------|
A|-0-0-0-0-0-0-0-0-0-0--5-5-5-3-5-5-5--|
D|-0-0-0-0-0-0-0-0-0-0-----------------|
|--------p.m.-------|

Durante(riff3)2a. guitarra toca:
e|-----------------------------------------------------------|
B|-3-7---7---------3-3-3-3--3-7-3-7---------3-3-3-3/10-10/6--|
G|-2-5-7-5-5-5-5-5-2-2-2-2--2-5-5-5-5-5-5-5-2-2-2-2/9--9-/5--|
D|-----5---5-5-5-5------------------5-5-5-5------------------|
A|-----------------------------------------------------------|
D|-----------------------------------------------------------|

(riff1)(2X)

==>Terminar com: A|-2-| e depois da bateria: A|-0-|
D|-2-| D|-0-|

_______________________________

Encontrou algum erro na letra? Por favor, envie uma correção >

Compartilhe
esta música

Ouça estações relacionadas a Raimundos no Vagalume.FM

ÚLTIMAS

MIX DE MÚSICAS

ARTISTAS RELACIONADOS