Página inicial > Punk Rock > R > Raimundos > Véio, Manco e Gordo

Véio, Manco e Gordo

Raimundos

Warner 25 Anos: Raimundos



Intro:(2X)
e|----------------------------------|
B|----------------------------------|
G|----------------------------------|
D|----------------------------------|
A|---------------------------3-5-6--|
D|-0-0-0-0-3-0-0-0-0-3-0-0-0-3-5-6--|

Riff1:(4X)
e|-------------------------------------------|
B|-------------------------------------------|
G|-------------------------------------------|
D|-------------------------------------------|
A|-5-5-5-5-3--5-5-5-5-3--5-5-5-5-3--6-6-6-6--|
D|-------5-3--------5-3--------5-3--6-6-6-6--|

"Cansei de dizer
Que você tem que parar de comer agora,
Dorme cedo, acorda cedo e corre subindo a ladeira
Se o joelho doer quem mandou não aquecer,
E no fim do dia vai ver que não foi em vão essa canseira
E se é ruim no futebol, passa mal se toma sol
No surf ainda é pior, quem vê pensa até que é brincadeira
Aprende uma lição computador não é malhação.
Com o bucho arrastando no chão é impossível perder essa pêra"

Riff2:(toque abafando as notas/cordas)
e|-----------------------------------------------------------|
B|-----------------------------------------------------------|
G|-----------------------------------------------------------|
D|-----------------------------------------------------------|
A|-0-6-0-5-0-3-5-5-3-0-5-3-0--0-2-0-6-0-5-0-3-5-5-3-0-5-3-0--|
D|-0-6-0-5-0-3-5-5-3-0-5-3-0--0-2-0-6-0-5-0-3-5-5-3-0-5-3-0--|
|------------3 vezes----------|

"Tome cuidado irmão com a bicicleta
Você pode tombar, cair no chão e rasgar a venta
Se te leva pra correr com o Manel você não aguenta
Se te leva pra dropar nas merreca você nem tenta"

(intro)(2X)
"Seu véio, manco, gordo
Véio, manco, gordo"

(riff1)(4X)
"Eu já cansei de dizer que você tem que parar de comer,
Senão estoura e a pança vai doer
Senão jogar fora a lancheira
Pra quando crescer você não ficar feito uma bola
E ficar fora das peladas que rolam na terça-feira
Leve feito uma vaca velocidade de foca couro de cobra
Come tanto que o bucho dobra
Aprende uma lição "sumô só é lindo no Japão"
Com o bucho arrastando no chão vê se tira o rabo da cadeira"

(riff2)(1X)
"Tome cuidado irmão com a bicicleta
Você pode tombar, cair no chão e rasgar a venta
Se te leva pra fazer um rapel você não agüenta
Se te leva pra dropar nas merreca você nem tenta"

(intro)(1X)
Seu véio, manco, gordo

_______________________________

Encontrou algum erro na letra? Por favor, envie uma correção >

Compartilhe
esta música

Ouça estações relacionadas a Raimundos no Vagalume.FM

ÚLTIMAS

MIX DE MÚSICAS

ARTISTAS RELACIONADOS