Página inicial > Rock Alternativo > P > Pitty > Máscara (tablatura)

Máscara (tablatura)

Pitty


Artista: Pitty
Música: Máscara
Álbum: Admirável Chip Novo
G|------------------------------------------------|
D|--0---0--0-3-3-5h6-5-3--0--0--0-6-6-6-6-6-6-6---|
Tuning: Drop D

_Intro:

E|------------------------------------------------|
B|------------------------------------------------|

A|--0---0--0-3-3-5h6-5-3--0--0--0-6-6-6-6-6-6-6---|
D|--0---0--0-3-3-5h6-5-3--0--0--0-6-6-6-6-6-6-6---|

E|------------------------------------------------|
B|------------------------------------------------|
G|------------------------------------------------|
D|--0---0--0-3-3-5h6-5-3--0--0--0-1-1-1-1-1-1-1---|
A|--0---0--0-3-3-5h6-5-3--0--0--0-1-1-1-1-1-1-1---|
D|--0---0--0-3-3-5h6-5-3--0--0--0-1-1-1-1-1-1-1---|

E|------------------------------------------------|
B|------------------------------------------------|
G|------------------------------------------------|
D|--0---0--0-3-3-5h6-5-3--0--0--0-6-6-6-6-6-6-6---|
A|--0---0--0-3-3-5h6-5-3--0--0--0-6-6-6-6-6-6-6---|
D|--0---0--0-3-3-5h6-5-3--0--0--0-6-6-6-6-6-6-6---|

E|------------------------------------------------|
B|------------------------------------------------|
G|------------------------------------------------|
D|--0---0--0-3-3-5h6-5-3--0--0--0-1-1-------------|
A|--0---0--0-3-3-5h6-5-3--0--0--0-1-1-------------|
D|--0---0--0-3-3-5h6-5-3--0--0--0-1-1-------------|
p.m.|---|


_Verso: em alguns momentos escuta-se três guitarras ...
dando tranquilamente para levar a música com uma única guitarra ...
como já vi a Pitty tocando no gordo a go-go

G1 .. só toca na hora dessa passagem
E|-----------|
B|-----------|
G|-----------|
D|--3--6-5-3-|
A|--3--6-5-3-|
D|--3--6-5-3-|


G2 ... faz variações na hora da nota RÉ em diferentes "oitavas"

G2 ou G3 ... fica tocando a mesma coisa da intro,
só que abafado, isso a partir da hora em que a Pitty começa a
cantar "Tira, a máscara que cobre o seu rosto..." .

Pré-Refrão:

E|------------|
B|------------|
G|---------*--|
D|-0----1--0--|
A|-0----1--0--|
D|-0----1--0--| *tocar a nota e abafar (parar) em seguida.



_Refrão:

E|-------------------|
B|--3---6---8---11---|
G|--2---5---7---10---|
D|--0---3---5---8----| toca-se várias vezes cada nota.
A|--0---3---5---8----|
D|--0---3---5---8----|


_Bridge:

E|---------------------------------------------|
B|---------------------------------------------|
G|---------------------------------------------|
D|--5h6-5-3-0-5h6-5-3-0--5h6-5-3-0-5h6-5-3-0---|
A|--5h6-5-3-0-5h6-5-3-0--5h6-5-3-0-5h6-5-3-0---|
D|--5h6-5-3-0-5h6-5-3-0--5h6-5-3-0-5h6-5-3-0---|


_Pós-Brigde: onde a Pitty canta "I had enough of it, but I don't care... "

é uma variação em D, F, E, de preferência uma oitava acima. Ex:


E|--0---0--0---|
B|--3---6--5---|
G|--2---5--4---| faz-se pequenas variações dentro dessas notas ... fica massa
D|-------------|
A|-------------|
D|-------------|

No final da última vez em que a Pitty canta "I had enough ...
but I don't care", toca-se:


E|-------------------(*)|
B|-------------------15-|
G|-------------------14-|
D|--0-0-0-0-0-0-0-0--0--| (*) toca-se várias vezes de forma rápida.
A|--0-0-0-0-0-0-0-0--0--|
D|--0-0-0-0-0-0-0-0--0--|
p.m.|---------------|

Letra enviada por

Encontrou algum erro na letra? Por favor, envie uma correção >

Compartilhe
esta música

Ouça estações relacionadas a Pitty no Vagalume.FM

ÚLTIMAS

MIX DE MÚSICAS

ARTISTAS RELACIONADOS