Página inicial > Rock > O > Ozzy Osbourne > Bark At The Moon (tablatura)

Bark At The Moon (tablatura)

Ozzy Osbourne


Gtr I (E A D G B E) - 'Jake E. Lee - Rhythm w/dist'
Gtr II (E A D G B E) - 'Jake E. Lee - Lead & Fills w/dist'

Intro
Q=150
4/4
Gtr I
PM----| PM----| PM---
E E E S S S S E S S S S E S S
|-----||------------------------------|
|---8-||-10---------10---------10-----|
|---7-||--9----------9----------9-----|
|---5-||--7----------7----------7-----|
|-----||----0-0-0-0----0-0-0-0----0-0-|
|-----||------------------------------|


---| PM----| PM------| PM----| PM----| PM|
S S E S S S S E S S S S E E S S S S E S S S S E S S
|---------------------------|-----------------------------|
|-----8---------8-----------|-8---------8---------8-------|
|-----9---------9-----------|-7---------7---------7-------|
|-----7---------7-----------|-5---------5---------5-------|
|-0-0---0-0-0-0---0-0-3p0---|---0-0-0-0---0-0-0-0---0-0---|
|-------------------------0-|-----------------------------|


PM| PM| PM| PM| PM----| PM----| PM---
S S E S S E S S E S S E E S S S S E S S S S E S S
|-----------------5-------|------------------------------|
|-----6-----6-----6-----8-|-10---------10---------10-----|
|-----5-----4-----4-----7-|--9----------9----------9-----|
|-----3-----5-----5-----5-|--7----------7----------7-----|
|-0-0---0-0---0-0---0-0---|----0-0-0-0----0-0-0-0----0-0-|
|-------------------------|------------------------------|


---| PM------|
S S E S S S S E S S S S E
|----------------------------|
|-----8---------8------------|
|-----9---------9------------|
|-----7---------7------------|
|-0-0---0-0-0-0---0-0-5p0----|
|-------------------------3--|


$
PM----| PM----| PM|
E S S S S E S S S S E S S E E E E E E E E
|---------------------------|-----------------|
|-8---------8---------8-----|-----------------|
|-7---------7---------7-----|-----------------|
|-5---------5---------5-----|-----------------|
|---0-0-0-0---0-0-0-0---0-0-|-1-0-1-3-1-0-----|
|---------------------------|-------------3-1-|


Verses
PM----| PM----| PM|
E S S S S E S S S S E S S
||--------------------------------|
||o-10---------10---------10------|
||---9----------9----------9------|
||---7----------7----------7------|
||o----0-0-0-0----0-0-0-0----0-0--|
||--------------------------------|


PM| PM----| PM--------|
S S E S S S S E S S S S S S
|-----------------------------|
|-----8---------8-------------|
|-----9---------9-------------|
|-----7---------7-------------|
|-0-0---0-0-0-0---0-0-0-0-0-0-|
|-----------------------------|


PM----| PM----| PM------| PM| PM| PM|
E S S S S E S S S S E S S S S E S S E S S E S S E
|---------------------------|-----------------5-------|
|-8---------8---------8-----|-----6-----6-----6-----6-|
|-7---------7---------7-----|-----5-----4-----4-----5-|
|-5---------5---------5-----|-----3-----5-----5-------|
|---0-0-0-0---0-0-0-0---0-0-|-0-0---0-0---0-0---0-0---|
|---------------------------|-------------------------|


PM----| PM----| PM---
E S S S S E S S S S E S S
|------------------------------|
|-10---------10---------10-----|
|--9----------9----------9-----|
|--7----------7----------7-----|
|----0-0-0-0----0-0-0-0----0-0-|
|------------------------------|


---| PM----| PM--------| PM----| PM----| PM|
S S E S S S S E S S S S S S E S S S S E S S S S E S S
|-----------------------------|-----------------------------|
|-----8---------8-------------|-8---------8---------8-------|
|-----9---------9-------------|-7---------7---------7-------|
|-----7---------7-------------|-5---------5---------5-------|
|-0-0---0-0-0-0---0-0-0-0-0-0-|---0-0-0-0---0-0-0-0---0-0---|
|-----------------------------|-----------------------------|


Pre-Chorus
E E E E E E E E H.. S S W H.. S S
|-----------------||-2---------0-0-|-0--------|-2-------------|
|-----------------||-2---------3-3-|-3--------|-5-------------|
|-----------------||-2---------2-2-|-2--------|-4-------------|
|-----------------||-4---------0-0-|-0--------|-2-------------|
|-1-0-1-3-1-0-----||-4---------0-0-|----------|-2-------------|
|-------------3-1-||-2---------0-0-|----------|-0---------2-2-|


PM----------------------------|
S S S S S S S S S S S S S S S S W W H.. S S
|---------------------------------|-2--------|-0--------|---------------||
|---------------------------------|-2--------|-3--------|-5-------------||
|---------------------------------|-2--------|-2--------|-4-------------||
|---------------------------------|-4--------|-0--------|-2-------------||
|-4-4-----2-2-----5-5-----4-4-----|-4--------|----------|-2-------------||
|-----2-2-----2-2-----2-2-----2-2-|-2--------|----------|-0---------2-2-||
|
| PM----------------------------|
| S S S S S S S S S S S S S S S S W W W
|---------------------------------|----------|----------|---------------||
|---------------------------------|----------|----------|---------------||
|---------------------------------|----------|----------|---------------||
|---------------------------------|----------|----------|---------------||
|-4-4-----5-5-----2-2-----4-4-----|----------|----------|---------------||
|-----2-2-----2-2-----2-2-----2-2-|----------|----------|---------------||
|
| PM----------------------------|
| S S S S S S S S S S S S S S S S W W W
|---------------------------------|----------|----------|---------------||
|---------------------------------|----------|----------|---------------||
|---------------------------------|----------|----------|---------------||
|---------------------------------|----------|----------|---------------||
|-5-5-----4-4-----2-2-----5-5-----|----------|----------|---------------||
|-----2-2-----2-2-----2-2-----2-2-|----------|----------|---------------||


1.
PM----| PM----| PM---
Q Q Q E E E S S S S E S S S S E S S
|------------------|------------------------------|
|-9--------------8-|-10---------10---------10-----|
|-9--------------7-|--9----------9----------9-----|
|-9--------------5-|--7----------7----------7-----|
|-7----------------|----0-0-0-0----0-0-0-0----0-0-|
|------------------|------------------------------|
|
| Gtr II
| 2____/
| Q +H. W
|------------------|------------------------------|
|------------------|------------------------------|
|------------------|------------------------------|
|------------------|------------------------------|
|------------------|------------------------------|
|-0----(0)---------|------------------------------|


---| PM----| PM--------|
S S E S S S S E S S S S S S
|-----------------------------|
|-----8---------8-------------|
|-----9---------9-------------|
|-----7---------7-------------|
|-0-0---0-0-0-0---0-0-0-0-0-0-|
|-----------------------------|
|
| W
|-----------------------------|
|-----------------------------|
|-----------------------------|
|-----------------------------|
|-----------------------------|
|-----------------------------|


PM----| PM----| PM------| PM| PM| PM|
E S S S S E S S S S E S S S S E S S E S S E S S E
|---------------------------|-------------------------|
|-8---------8---------8-----|-----6-----6-----------8-|
|-7---------7---------7-----|-----5-----4-----4-----7-|
|-5---------5---------5-----|-----3-----5-----5-----5-|
|---0-0-0-0---0-0-0-0---0-0-|-0-0---0-0---0-0---0-0---|
|---------------------------|-------------------------|


PM----| PM----| PM|
E S S S S E S S S S E S S
|-------------------------------|
|-10---------10---------10------|
|--9----------9----------9------|
|--7----------7----------7------|
|----0-0-0-0----0-0-0-0----0-0--|
|-------------------------------|


PM| PM----| PM------| PM----| PM----| PM------------------|
S S E S S S S E S S S S E E S S S S E S S S S E S S E E E E E E E E
|---------------------------|---------------------------|-------------------||
|-----8---------8-----------|---------------------------|------------------o||
|-----9---------9-----------|-7---------7---------7-----|-------------------||
|-----7---------7-----------|-5---------5---------5-----|-------------------||
|-0-0---0-0-0-0---0-0-3-0-0-|---0-0-0-0---0-0-0-0---0-0-|-1-0-1-3-1-0------o||
|---------------------------|---------------------------|-------------3-1---||


Chorus
2.,3.,D.S.
PM|
Q Q H Q E E E E E E
|-----------------||----------------|
|-9---------------||----------------|
|-9---------------||-2------5-7---4-|
|-9---------------||-2------5-5---5-|
|-7---------------||-0--0-0---------|
|-----------------||----------------|
|
| Gtr II
| 2______/
| E Q. +H W
|-----------------||----------------|
|-----------------||----------------|
|-----------------||----------------|
|-----------------||----------------|
|-----------------||----------------|
|---0------(0)----||----------------|


+E S S S S S S S S E E E E E E E +Q E S S
|---------------------------|-------0-(0)--0------|
|---------------------------|-------0-(0)--1------|
|-(4)-----4-4-----5s7p5-4---|-4s2---2-(2)--2------|
|-(5)-5-5-----5-5-----------|-5s3---3-(3)--3------|
|-----------------3s5p3-2---|----------------0-0--|
|-------------------------3-|---------------------|
|
| W W
|---------------------------|---------------------|
|---------------------------|---------------------|
|---------------------------|---------------------|
|---------------------------|---------------------|
|---------------------------|---------------------|
|---------------------------|---------------------|


PM--| PM------------------------|
E E E E +Q E E Q E S S E E E E +E S S S S S S S S S S S S S S
|-------0-(0)--0----|------------------|----------------------------------|
|-------0-(0)--0----|----------------3-|-(3)------------------------------|
|-2-4---4-(4)--4-x-|-2--------5-7---4-|-(4)-----4-4-----7-7-5-5-4-4------|
|-3-2---2-(2)--2-x-|-2--------5-5---5-|-(5)-5-5-----5-5-------------5-5--|
|-------2-(2)--2-x-|-0--0-0-0---------|----------------------------------|
|-------0-(0)--0----|------------------|----------------------------------|


Bridge
To Coda
PM| PM| ~~~ PM PM ~~~
E E E E +Q E S S E E E E +Q. E q E E Q E E q E E Q E E
|-------0-(0)--0-----|-------0-(0)-----||-----------------|------------------|
|-------0-(0)--1-----|-------0-(0)-----||-----------------|------------------|
|-4s2---2-(2)--2-----|-2-4---4-(4)-----||-----------------|------------------|
|-5s3---3-(3)--3-----|-3-2---2-(2)---2-||-3-------------2-|-3----------------|
|--------------------|-------2-(2)---2-||-3--3-1-[2]--3-2-|-3--3---[2]--3----|
|----------------0-0-|-------0-(0)---0-||-1-------------0-|-1----1--------1--|


2
PM PM| ~~~ PM PM ~~~
Q Q E E E E H. +E E q E E Q E E q E E Q E E
|----3--5---3---|-3-------(3)---|-----------------|-----------------|
|-3-------3-----|-3-------(3)---|-----------------|-----------------|
|-0-----------0-|---------------|-----------------|-----------------|
|-0-------------|---------------|-3-------------2-|-3---------------|
|---------------|-------------2-|-3--3---[2]--3-2-|-3--3---[2]--3---|
|-3-------------|-------------0-|-1----1--------0-|-1----1--------1-|


1___/
PM| ~~~ PM PM| ~~~
W a +H. +E E q E E Q E E Q E E Q E E
|-3--------|--------------------|-----------------|------------------|
|-3--------|--------------------|-----------------|------------------|
|-0--------|--------------------|-----------------|------------------|
|-0--------|--------------------|-3---------------|------------------|
|----------|-0---(0)------(0)---|-3--3---[2]--3---|----3---[2]--3----|
|-3--------|------------------0-|-1----1--------0-|-1----1--------1--|


2
T
H +H H.. E H.. E H.. E
|-----------------|--------------|-----------0-|--5-----------|
|-3----(3(12))----|--------------|-------------|--6-----------|
|-0----(0(12))----|--------------|-------------|--7-----------|
|-0----(0(12))----|-----------|-3-----------|--7-----------|
|-----------------|--------------|-3-----------|--5---------3-|
|-3---------------|------------0-|-1-----------|--------------|
|
| Gtr II
| <
| ~~~~~~~~~~~~~~~~~~~
| w w w +w
|-----------------|--------------|-------------|--------------|
|-----------------|--------------|-------------|--------------|
|-----------------|--------------|-7-----------|-(7)----------|
|-----------------|--------------|-------------|--------------|
|-----------------|--------------|-------------|--------------|
|-----------------|--------------|-------------|--------------|


h. e e +e e q q q q e e q e e +q e e q e e
|----------0---|----------1-----|-----------------|-----------------||
|--3---------3-|-(3)---1--------|------5---5----3-|-(3)--5---3--5---||
|--3-----------|-----3-------3--|--5-----5----5---|--------5-5--5---||
|--3-----------|-------------3--|--5----------5---|----------5--5---||
|--1-----------|----------------|--3--------------|---------------3-||
|--------------|----------------|-----------------|---------------3-||
|
| ~~~~~~~~~~~~~~~~~~~~~~~~~~~~~~~~~~~~~~~~~~~~~~~~~~~~~
| +w +w +w +w
|--------------|----------------|-----------------|-----------------||
|--------------|----------------|-----------------|-----------------||
|-(7)----------|-(7)------------|-(7)-------------|-(7)-------------||
|--------------|----------------|-----------------|-----------------||
|--------------|----------------|-----------------|-----------------||
|--------------|----------------|-----------------|-----------------||


guitar solo
gtr ii
~~~~
|--3--|
h. e e +q. +e e e e q
|--------------------------|-------------------10--------------|
|-/13-----------x-13b14====|=(13)b15=====(13)r----13-10--------|
|---------------x----------|----------------------------12b14r=|
|---------------x----------|-----------------------------------|
|--------------------------|-----------------------------------|
|--------------------------|-----------------------------------|
|
| gtr i
| pm---------| pm
| q e e e e e s s q e e q q
|---5-----5-5--------------|---5-------5-----------------------|
|---6-----6-6--------------|---6-------6--------5--------5-----|
|---7-----7-7--------------|---7-------7--------5--------5-----|
|---7-----7-7--------------|---7-------7--------5--------5-----|
|---5-----5-5-5-5--5-----5-|---5-------5---5----3--------3-----|
|--------------------------|-----------------------------------|


~~~~~~~~ ~~~
+e. s e e +e e e e s s e e e a q. s s
|-------------------------------|------------------------------|
|-------------------------------|------------------------------|
|-(12)-10-12-[10]-(10)-9-10-9---|-10p9----9--------------------|
|-------------------------------|------12---10-10s12-----------|
|-------------------------------|------------------------10h12-|
|-------------------------------|------------------------------|
|
| pm pm pm| pm
| q e e e e e s s q e e q q
|---5----------5----5-----5-----|--5------5--------------------|
|---6----------6----6-----6-----|--6------6--------5-----------|
|---7----------7----7-----7-----|--7------7--------5-----------|
|---7----------7----7-----7-----|--7------7--------5-----------|
|---5------5---5----5--5--5-5-5-|--5------5--5-----3---0-------|
|-------------------------------|------------------------------|


~~~
|--3--|
s s s s s s s e +e +s s q
|-------------------------------------------------|
|-------------------------------------------------|
|-------------------10-12b14==(12)r(12)-10-12s====|
|-10----12----10----------------------------------|
|----12----12----12-------------------------------|
|-------------------------------------------------|
|
| pm|
| q e e e e e s s
|-------------------------------------------------|
|--3-----------3----------------3----3------3-----|
|--3-----------3----------------3----3------3-----|
|--3-----------3----------------3----3------3-----|
|--1-----------1--------1-------1----1------1-1-1-|
|-------------------------------------------------|


~~
e e e e +h +q a +e e s s s s s s e
|----------15b17====(15)------|-(15)r--15pb17r(15)-13-12h13p12----12-------|
|-------13--------------------|--------------------------------15----13-15-|
|-2/-14-----------------------|--------------------------------------------|
|-----------------------------|--------------------------------------------|
|-----------------------------|--------------------------------------------|
|-----------------------------|--------------------------------------------|
|
| pm---|
| q e s s q e e h. e e
|---------------------------3-|---3----------------------------------------|
|-3------3------------3-----3-|---3----------------------------------------|
|-3------3------------3-----3-|---3----------------------------------------|
|-3------3------------3-------|---5----------------------------------------|
|-1------1--1-----1---1---0---|---5----------------------------------------|
|-----------------------------|---3--------------------------------5-----5-|


~~~~ ~~
+q e e s s q e e e s s s s s s s s e s s
|-------------17p13---------|----13-17p13-15p13s12-13-12-------12----|
|-(15)--13-15-------15---13-|-15-------------------------13----------|
|---------------------------|-------------------------------14----14-|
|---------------------------|----------------------------------------|
|---------------------------|----------------------------------------|
|---------------------------|----------------------------------------|
|
| pm pm pm|
| h e e e e e e e s s e e e s s
|--------------5-----5-5--5-|--5-----5-----5--5--5-----------5-------|
|--------------5-----5-5--5-|--6-----6-----6--6--6-----------6-------|
|---2----------2-----2-2--2-|--7-----7-----7--7--7-----------7-------|
|---2----------2-----2-2--2-|--7-----7-----7--7--7-----------7-------|
|---0----------0-----0-0--0-|--5--5--5-----5--5--5-----5-----5--5--5-|
|---------------------------|----------------------------------------|


~~~~
e. s +e +s s h
|------------------------------------|
|-13----15b18r(15)-(15)p13-[13]------|
|------------------------------------|
|------------------------------------|
|------------------------------------|
|------------------------------------|
|
| pm pm-|
| e e e s s q q
|--5------------5--------------------|
|--6------------6------------5---5---|
|--7------------7------------5---5---|
|--7------------7------------5---5---|
|--5--5---------5----5---5---3---3---|
|------------------------------------|


e e s s s s s s s s s s s +s
|---------10----------------10------------------------|
|---13b15----13p10-------10----13p10----10------------|
|------------------12b14-------------12----12b14r(12)p|
|-----------------------------------------------------|
|-----------------------------------------------------|
|-----------------------------------------------------|
|
| pm pm pm---|
| e e e s s e e e s s
|-5--------5-----5--5-----5-----------5---------------|
|-6--------6-----6--6-----6-----------6---------------|
|-7--------7-----7--7-----7-----------7---------------|
|-7--------7-----7--7-----7-----------7---------------|
|-5--5-----5-----5--5-----5-----5-----5-----5------5--|
|-----------------------------------------------------|


~~~~ ~~ ~~~~~~~~~~~~~~
s s s s e s s q e.s q. e +q e s s
|---------------------------------|---------------------------|
|---------------------------------|---------------------------|
|-10----12----[10]----------------|---------------------------|
|----12----12------12p10-12--10p8-|-8-----7---(7)-----5-x-10--|
|---------------------------------|---------------------------|
|---------------------------------|---------------------------|
|
| pm pm| pm------| pm|
| e e e s s q q q e s s s s e e s s
|--5------------5-----------------|---------------------------|
|--6------------6---------5---5---|-3---3-------------3-------|
|--7------------7---------5---5---|-3---3-------------3-------|
|--7------------7---------5---5---|-3---3-------------3-------|
|--5-----5------5---5--5--3---3---|-1---1-1-1--1--1-1-1-1--1--|
|---------------------------------|---------------------------|


~~~ ~~
|---3----|
q. e +q e. s q e e e s +s +s +s s e
|-------------------------|--------------------------------------------|
|-------------------------|-----10----10-12b13==(12)-(12)-(12)r--------|
|-------------------------|-----10----10-12b14==(12)-(12)r(12)p10------|
|-10------8---(8)--10--10-|-12-----12-----------------------------12---|
|-------------------------|--------------------------------------------|
|-------------------------|--------------------------------------------|
|
| pm---| pm|
| e e e s s q q q e e e e e s s
|-------------------------|------5---------------------5---------------|
|-----3-3-----------------|------6---------------------6---------------|
|-----3-3------5----5-----|--7---7---------------------7---------------|
|-----3-3------5----5-----|--7---7---------------------7---------------|
|--1--1-1-1-1--3----3-----|--5---5--5--5--5------------5-----------5-5-|
|-------------------------|--------------------------------------------|


~~
e e s s e +e e q
|-------------------------------|
|-12------------------------x--|
|-12-10b11------------------x--|
|----------12p10-12-(12)----x--|
|------------------------12-x--|
|-------------------------------|
|
| h q q
|--5----------------------------|
|--6----------------------------|
|--7------------------7-----7---|
|--7------------------7-----7---|
|--5------------------5-----5---|
|-------------------------------|


s s s s s s s s s s s s s s s s
|----------------------------------|
|----------------------------------|
|--------------------------------3-|
|------------------3---3-5-7p5-7---|
|--------3-5p3-5-7---7-------------|
|-6p=5-6---------------------------|
|
| h.. s s
|----------------------------------|
|-3----------------------------3-3-|
|-3----------------------------3-3-|
|-3----------------------------3-3-|
|-1----------------------------1-1-|
|----------------------------------|


s s s s s s s s q. s s s s s s s s s s s s s s s s s s
|----------------------------|---------------------------------|
|---------5-----5-6b8--------|---------------------------------|
|-5p3-5h7---5-7--------------|-------------------------------5-|
|------------------------x-x-|-----------------5---5-7-8p7-8---|
|------------------------x-x-|-------5-7p5-7-8---8-------------|
|------------------------x-x-|-8p6-8---------------------------|
|
| q e s s q q w
|----------------------------|---------------------------------|
|-3-------x---3-3-3----3-----|-5-------------------------------|
|-3-------x---3-3-3----3-----|-5-------------------------------|
|-3-------x---3-3-3----3-----|-5-------------------------------|
|-1-------x---1-1-1----1-----|-3-------------------------------|
|----------------------------|---------------------------------|


~~~
s s s s s s s s a q. +e s s s s s s s s s s s s s s s s
|----------------------------------|---------------------------------------|
|-----------6---6-8-8s10-----(10)-|---------------------------------------|
|--7p=5-7h9---9--------------------|-------------------------------------7-|
|----------------------------------|--------------------7----7-8-10-8-10---|
|----------------------------------|---------7-8p7-8-10---10---------------|
|----------------------------------|-10p8-10-------------------------------|
|
| pm| pm
| +q. s s q q h. e s s
|----------------------------------|---------------------------------------|
|-(5)-----------5-5----------------|---------------------------------------|
|-(5)-----------5-5----5---5-------|--2---------------------------2----2-2-|
|-(5)-----------5-5----5---5-------|--2---------------------------2----2-2-|
|-(3)-----------3-3----3---3-------|--0---------------------------0----0-0-|
|----------------------------------|---------------------------------------|


tp tp
s s s s s s s s s s s s e s s
|----------------------------------10-10-12--|
|-------------------10-11-10-11-13-----------|
|-9p7-9-10s12-10-12--------------------------|
|--------------------------------------------|
|--------------------------------------------|
|--------------------------------------------|
|
| pm
| h. e e
|--------------------------------------------|
|--------------------------------------------|
|-3------------------------------------3-----|
|-3------------------------------------3-----|
|-1---------------------------------1--1-----|
|--------------------------------------------|


tp tp tp tp tp tp tp tp tp tp tp tp tp tp tp tp tp tp tp tp tp tp
|--3---| |--3--| |--3--| |--3--| |--3--| |--3--| |--3--|
s s s s s s e s s s s s s s s s s s s s s s
|-13--12-10-------------------12-15-13-12-------------------12-13-15-|
|-----------13-11-10-11-13-12-------------15-13-15-11-13-15----------|
|--------------------------------------------------------------------|
|--------------------------------------------------------------------|
|--------------------------------------------------------------------|
|--------------------------------------------------------------------|
|
| pm
| h. e e
|--------------------------------------------------------------------|
|--3---------------------------------------------------------3-------|
|--0---------------------------------------------------------0-------|
|--0---------------------------------------------------------0-------|
|--2------------------------------------------------2--------2-------|
|--------------------------------------------------------------------|


tp tp tp tp tp tp tp tp tp tp tp tp tp tp tp tp tp tp tp tp tp tp
|--3--| |--3--| |--3--| |--3--| |--3--| |--3--| |--3--|
s s s s s s s s s s s s s s s s s s s s s e
|-17-15-13-------------------13-15-17-18-17-15-------------------15---||
|----------17-17-15-13-15-17-------------------18-18-17-15-17-18------||
|---------------------------------------------------------------------||
|---------------------------------------------------------------------||
|---------------------------------------------------------------------||
|---------------------------------------------------------------------||
|
| q q e e e e















|---------------------------------------------------------------------||
|--5-----------------5-----------------5--------5--------5--------8---||
|--5-----------------5-----------------5--------5--------5--------7---||
|--5-----------------5-----------------5--------5--------5--------5---||
|--3-----------------3-----------------3--------3--------3------------||
|---------------------------------------------------------------------||


~~~~~~~~~~~~~~~~~~~~~~~~~~~~~~~~~~~~~~~~~~~~~~~~~~~~~~~~~~~~~~~~~~~~
q. e +q q +e q. h
|-17----------17-(17)-------17-----|-(17)---[17]---------17-----------|
|----------------------------------|----------------------------------|
|----------------------------------|----------------------------------|
|----------------------------------|----------------------------------|
|----------------------------------|----------------------------------|
|----------------------------------|----------------------------------|
|
| pm----| pm-----| pm---------| pm----| pm------|
| e s s s s e s s s s e s s s s e s s s s e s s s s e
|----------------------------------|----------------------------------|
|-10----------10------------10-----|----------8-----------8-----------|
|--9-----------9-------------9-----|----------9-----------9-----------|
|--7-----------7-------------7-----|----------7-----------7-----------|
|-----0-0-0-0------0--0-0-0----0-0-|---0--0------0-0-0-0----0-0-3p0---|
|----------------------------------|--------------------------------3-|


~~~~~~~~~~~~~~~~~~~~~~~~~~~~~~~~~~~~~~~~~~~~~~~~~~~~~~~~
q. e +q q +e q. h
|-17----------17-(17)-------17-----|-(17)---17--------17-----------|
|----------------------------------|-------------------------------|
|----------------------------------|-------------------------------|
|----------------------------------|-------------------------------|
|----------------------------------|-------------------------------|
|----------------------------------|-------------------------------|
|
| pm----| pm-----| pm---------| pm| pm| pm|
| e s s s s e s s s s e s s s s e s s e s s e s s e
|----------------------------------|-------------------------------|
|--8-----------8-------------8-----|---------6------6------------6-|
|--7-----------7-------------7-----|---------5------4------4-----4-|
|--5-----------5-------------5-----|---------3------5------5-------|
|-----0-0-0-0------0--0-0-0----0-0-|---0--0-----0-0----0-0---0-0---|
|----------------------------------|-------------------------------|


gtr i
pm----| pm----| pm------| pm|
e s s s s e s s s s e s s s s e s s s s e s s s s e
|------------------------------|---------------------------|
|-10---------10---------10-----|-----8---------8-----------|
|--9----------9----------9-----|-----9---------9-----------|
|--7----------7----------7-----|-----7---------7-----------|
|----0-0-0-0----0-0-0-0----0-0-|-0-0---0-0-0-0---0-0-5p0---|
|------------------------------|-------------------------3-|


d.s. al coda
pm----| pm----| pm|
e s s s s e s s s s e s s e e e e e e e e
|---------------------------|-----------------||
|-8---------8---------8-----|-----------------||
|-7---------7---------7-----|-----------------||
|-5---------5---------5-----|-----------------||
|---0-0-0-0---0-0-0-0---0-0-|-1-0-1-3-1-0-----||
|---------------------------|-------------3-1-||


&
pm|
q e e e e e e +e s s s s s s s s e e e
|----------------|---------------------------|
|----------------|---------------------------|
|-2------5-7---4-|-(4)-----4-4-----5s7p5-4---|
|-2------5-7---5-|-(5)-5-5-----5-5-----------|
|-0--0-0---------|-----------------3s5p3-2---|
|----------------|-------------------------3-|


pm pm--|
e e e e +q e s s e e e e +q e e q e s s e e e e
|-------0-(0)--0-----|-------0-(0)--0----|------------------|
|-------0-(0)--1-----|-------0-(0)--0----|----------------3-|
|-4s2---2-(2)--2-----|-2-4---4-(4)--4-x-|-2--------5-7---4-|
|-5s3---3-(3)--3-----|-3-2---2-(2)--2-x-|-2--------5-7---5-|
|----------------0-0-|-------2-(2)--2-x-|-0--0-0-0---------|
|--------------------|-------0-(0)--0----|------------------|


pm------------------------| pm
+e s s s s s s s s s s s s s s e e e e +q e s s e e e e e e e e
|---------------------------------|-------0-(0)--0-----|-------0---0---0--||
|-(3)-----------------------------|-------0-(0)--1-----|-------0---0---0--||
|-(4)-----4-4-----7-7-5-5-4-4-----|-4s2---2-(2)--2-----|-2-4---4---4---4--||
|-(5)-5-5-----5-5-------------5-5-|-5s3---3-(3)--3-----|-3-2---2---2---2--||
|---------------------------------|----------------0-0-|-------2---2---2--||
|---------------------------------|--------------------|-------0---0---0--||


outro - guitar solo
gtr ii
s s s s s s s s s s s s s s s s
||--------------------------------------------------|
||o-13p12----12-13p12-13p12----12-13p12-13p12----12-|
||--------14----------------14----------------14----|
||--------------------------------------------------|
||o-------------------------------------------------|
||--------------------------------------------------|
|
| gtr i
| pm---|
| q e e e e e e
||--------------------------------------------------|
||o-------------------------------------------------|
||---2-----------------------5-----7-----------4----|
||---2-----------------------5-----5-----------5----|
||o--0-----------0-----0----------------------------|
||--------------------------------------------------|


s s s s s s s s s s s s s s s s
|--------------------------------------------------|
|-15p=12----12-15p12-15p12----12-15p12-15p12----12-|
|--------12----------------12----------------12----|
|--------------------------------------------------|
|--------------------------------------------------|
|--------------------------------------------------|
|
|
| +e s s s s s s s s e e e
|--------------------------------------------------|
|--------------------------------------------------|
|-(4)-----------4--4--------5s=7p=5-----4----------|
|-(5)-----5--5--------5--5-------------------------|
|---------------------------3s=5p=3-----2----------|
|---------------------------------------------3----|

s s s s s s s s s s s s s s s s
|--------------------------------------------------|
|-17p13----13-17p13-17p13-----13-17p13-17p13----12-|
|--------------------------------------------------|
|-------15----------------15-----------------15----|
|--------------------------------------------------|
|--------------------------------------------------|
|
| pm-|
| e e e e +q e s s
|--------------------0----(0)-----------0----------|
|--------------------0----(0)-----------1----------|
|--4s====2-----------2----(2)-----------2----------|
|--5s====3-----------3----(3)-----------3----------|
|---------------------------------------------0--0-|
|--------------------------------------------------|


1.
s s s s s s s s s s s s s s s s
|----------------------------------------------------||
|-15p12----12-15p12-15p12-----12-15p12-15p12-----12-o||
|-------12----------------12-----------------12------||
|----------------------------------------------------||
|---------------------------------------------------o||
|----------------------------------------------------||
|
| e e e e +q e e
|--------------------0----(0)-----------0------------||
|--------------------0----(0)-----------0-----------o||
|--2-----4-----------4----(4)-----------4-----x-----||
|--3-----2-----------2----(2)-----------2-----x-----||
|--------------------2----(2)-----------2-----x----o||
|--------------------0----(0)-----------0------------||


2.
s s s s s s s s s s s s s s s s
|--13p12----12----------------------------------------|
|--------15----15-13p12----12--13p12----12------------|
|-----------------------14-----------14----13p12------|
|-------------------------------------------------14--|
|-----------------------------------------------------|
|-----------------------------------------------------|
|
| e e e e +q e e
|---------------------0----(0)-----------0------------|
|---------------------0----(0)-----------0------------|
|---2-----4-----------4----(4)-----------4-----x-----|
|---3-----2-----------2----(2)-----------2-----x-----|
|---------------------2----(2)-----------2-----x-----|
|---------------------0----(0)-----------0------------|


s s s s s s s s s s s s s s s s
||--------------------------------------------------|
||o-13p12----12-13p12-13p12----12-13p12-13p12----12-|
||--------14----------------14----------------14----|
||--------------------------------------------------|
||o-------------------------------------------------|
||--------------------------------------------------|
|
| pm---|
| q e e e e e e
||--------------------------------------------------|
||o-------------------------------------------------|
||---2-----------------------5-----7-----------4----|
||---2-----------------------5-----5-----------5----|
||o--0-----------0-----0----------------------------|
||--------------------------------------------------|


s s s s s s s s s s s s s s s s
|--------------------------------------------------|
|-15p=12----12-15p12-15p12----12-15p12-15p12----12-|
|--------12----------------12----------------12----|
|--------------------------------------------------|
|--------------------------------------------------|
|--------------------------------------------------|
|
| +e s s s s s s e e e e
|--------------------------------------------------|
|--------------------------------------------------|
|-(4)-----------4--4-------/9-----7-----4----------|
|-(5)-----5--5--------5--5-------------------------|
|--------------------------/7-----5-----2----------|
|---------------------------------------------3----|

s s s s s s s s s s s s s s s s
|--------------------------------------------------|
|-17p13----13-17p13-17p13-----13-17p13-17p13----12-|
|--------------------------------------------------|
|-------15----------------15-----------------15----|
|--------------------------------------------------|
|--------------------------------------------------|
|
| pm|
| e e e e +q e s s
|--------------------0----(0)-----------0----------|
|--------------------0----(0)-----------1----------|
|--4s====2-----------2----(2)-----------2----------|
|--5s====3-----------3----(3)-----------3----------|
|---------------------------------------------0--0-|
|--------------------------------------------------|


1.
s s s s s s s s s s s s s s s s
|----------------------------------------------------||
|-15p12----12-15p12-15p12-----12-15p12-15p12-----12-o||
|-------12----------------12-----------------12------||
|----------------------------------------------------||
|---------------------------------------------------o||
|----------------------------------------------------||
|
| e e e e +q e e
|--------------------0----(0)-----------0------------||
|--------------------0----(0)-----------0-----------o||
|--2-----4-----------4----(4)-----------4-----x-----||
|--3-----2-----------2----(2)-----------2-----x-----||
|--------------------2----(2)-----------2-----x----o||
|--------------------0----(0)-----------0------------||


2.
~~~
s s s s s s s s s s s s s s s s q q h
|-13p12----12--------------------------------------|--------------*|
|-------15----15-13p12----12--13p12----12----------|--------------*|
|----------------------14-----------14----13p12----|-14----------*|
|-----------------------------------------------14-|--------------*|
|--------------------------------------------------|--------------*|
|--------------------------------------------------|--------------*|
|
| e e e e +q e e q q h
|--------------------0----(0)-----------0----------|--------------*|
|--------------------0----(0)-----------0----------|--------------*|
|--2-----4-----------4----(4)-----------4----------|--------------*|
|--3-----2-----------2----(2)-----------2-----5----|--7-----------*|
|--------------------2----(2)-----------2-----5----|--7-----------*|
|--------------------0----(0)-----------0-----3----|--5-----------*|

Encontrou algum erro na letra? Por favor, envie uma correção >

Compartilhe
esta música

Ouça estações relacionadas a Ozzy Osbourne no Vagalume.FM

ÚLTIMAS

MIX DE MÚSICAS

ARTISTAS RELACIONADOS