Página inicial > Reggae > O > O Rappa > Linha Vermelha (tablatura)

Linha Vermelha (tablatura)

O Rappa


Tom: C#

(intro)

E|--------------------|
B|--1--1---1---2---1--|
G|--1--1---1---1---1--|
D|--------------------| (2x)
A|--1----1---1---1----|
E|--------------------|

E|------------------------------------------
B|-6--6---6---7---6----4--4---4---7--6---6--
G|-6--6---6---6---6----6--6---6---6--6---6--
D|------------------------------------------
A|-6----6---6---6------6----6---6------6----
E|------------------------------------------

Uahhh…. (4x)

Fecharam a Linha Vermelha
Fecharam a Linha Amarela
Fecharam a Avenida Brasil

Grajaú e Jacarepaguá e também o Anil
Alto da Boa Vista, Vista Chinesa, Painera mandaram esperar, mandaram esperar
Sentido Lagoa Barra...Niemeyer
Tem que recomeçar, tem que construir
Tem que avaliar e tem hora pra agir
O tempo todo, o tempo todo
Agir

Vou me benzer, vou orar
Vou agradecer, vou me rezar (2x)

(intro)

Letra enviada por Jhonny Ramalho

Encontrou algum erro na letra? Por favor, envie uma correção >

Compartilhe
esta música

Ouça estações relacionadas a O Rappa no Vagalume.FM

ÚLTIMAS

MIX DE MÚSICAS

ARTISTAS RELACIONADOS