Página inicial > Heavy Metal > N > Nightwish > Plannet Hell (tablatura)

Plannet Hell (tablatura)

Nightwish


E|-----------------------------------------------------------------------------|
B|-----------------------------------------------------------------------------|
G|-----------------------------------------------------------3---2-------------|
D|-0--0-0-0--0-0-0--5-0--0-0-0--0-0-0--5-0--0-0-0--0-0-0---3-3-5-2-------------|
A|-0--0-0-0--0-0-0--5-0--0-0-0--0-0-0--5-0--0-0-0--0-0-0---3-1-5-0-------------|
D|-0--0-0-0--0-0-0--5-0--0-0-0--0-0-0--5-0--0-0-0--0-0-0---3---5---------------|


E|-----------------------------------------------------------------------------|
B|-----------------------------------------------------------------------------|
G|-------------------------------------------------------3---2-----------------|
D|-0--0-0-0--0-0-0--5-0--0-0-0--3/6--0--0-0-0--0-0-0---3-3-5-2-----------------|
A|-0--0-0-0--0-0-0--5-0--0-0-0--3/6--0--0-0-0--0-0-0---3-1-5-0-----------------|
D|-0--0-0-0--0-0-0--5-0--0-0-0--3/6--0--0-0-0--0-0-0---3---5-------------------|

2nd verse by Tarja (play two times)

E|-----------------------------------------------------------------------------|
B|-----------------------------------------------------------------------------|
G|-----------------------------------------------------------------------------|
D|-----------------------------------------------------------6---5-------------|
A|-3--3-3-3--3-3-3--1/3--3-3-3--3-3-3--1/3--3-3-3--3-3-3---6-4-5-3-------------|
D|-3--3-3-3--3-3-3--1/3--3-3-3--3-3-3--1/3--3-3-3--3-3-3---6---5---------------|


E|-----------------------------------------------------------------------------|
B|-----------------------------------------------------------------------------|
G|-3---3-----------------------------------------------------------------------|
D|-3---3---3---3---3-------------------------------------1---------------------|
A|-1---1---3---3---1-1-1-1-1-1-1-1...-3-3-3-3-3-3-3-3...-1---------------------|
D|---------3---3----------------------3-3-3-3-3-3-3-3...-1---------------------|
. . . . . . .... . . . . . . . ....


Verse 1 / Verse 2


2.31 Chorus
E|-----------------------------------------------------------------------------|
B|-----------------------------------------------------------------------------|
G|-----------------------------------------------------------------------------|
D|--3-6---8---98---696---669-8---98---6-96---4---------------------------------|
A|--3-6---8---98---696---669-8---98---6-96---4---------------------------------|
D|--3-6---888898888696666669-8888988886696-664---------------------------------|
... ... ... ... ... . ..


E|-----------------------------------------------------------------------------|
B|-----------------------------------------------------------------------------|
G|-----------------------------------------------------------------------------|
D|--------------------------------------------------------6-6-6--5-------------|
A|-3--3-3-3--3-3-3--1/3--3-3-3--3-3-3--1/3--3-3-3--3-3-3--6-6-6--5-------------|
D|-3--3-3-3--3-3-3--1/3--3-3-3--3-3-3--1/3--3-3-3--3-3-3--6-6-6--5-------------|
. . . . . . . . . . . . . . . . . .

E|-----------------------------------------------------------------------------|
B|-----------------------------------------------------------------------------|
G|-----------------------------------------------------------------------------|
D|-----8---98---696---669-8---98---6-96---4------------------------------------|
A|-----8---98---696---669-8---98---6-96---4------------------------------------|
D|-----888898888696666669-8888988886696-664------------------------------------|
... ... ... ... ... . ..


E|-----------------------------------------------------------------------------|
B|-----------------------------------------------------------------------------|
G|-------------------------------------6-6--6----------------------------------|
D|-------------------------------------6-6--6--6-6--6--5-----------------------|
A|-3--3-3-3--3-3-3--1/3--3-3-3--3-3-3--4-4--4--6-6--6--5-----------------------|
D|-3--3-3-3--3-3-3--1/3--3-3-3--3-3-3----------6-6--6--5-----------------------|
. . . . . . . . . . . .


2.58
E|-----------------------------------------------------------------------------|
B|-----------------------------------------------------------------------------|
G|----------------------------------------------------2*-----------------------|
D|-----------------------------------------------------------------------------|
A|--1/3--3-3--1-0-1---------------1/3--3-3--1-0-1--1---------------------------|
D|--1/3--3-3--1-0-1--3-1-3-5-6-8--1/3--3-3--1-0-1--1---------------------------|


E|-----------------------------------------------------------------------------|
B|-----------------------------------------------------------------------------|
G|-----------------------------------------------------------------------------|
D|-----------------------------------------------------------------------------|
A|--1/3--3-3--1-0-1---------------1/3--3-3--1-0-1--1--6------------------------|
D|--1/3--3-3--1-0-1--3-1-3-5-6-8--1/3--3-3--1-0-1--1--6------------------------|


3.13 under keyboard solo (play 2 times)
E|-----------------------------------------------------------------------------|
B|-----------------------------------------------------------------------------|
G|--3-------------------------------------3------------------------------------|
D|--3---------3-3-3--3--3-3-3--3----------3------6--1--------------------------|
A|--111111....3-3-3--3--3-3-3--3----------111111-6--1--------------------------|
D|------------3-3-3--3--3-3-3--33333333...-------6--1--------------------------|
......... .......... .....


3.38
E|-----------------------------------------------------------------------------|
B|-----------------------------------------------------------------------------|
G|---------5/6--5/6----------------------------5/6--5/6------------------------|
D|-------3-5/6--5/6-----------------------3-3--5/6--5/6------------------------|
A|--3333-3-3/4--3/4-----------------------3-3--3/4--3/4--6-4-3-4-3-------------|
D|--3333-3-----------4-3-1--4-3-1--1-3-4--333----------------------------------|
.... .

E|-----------------------------------------------------------------------------|
B|-----------------------------------------------------------------------------|
G|---------5/6--5/6----------------------------5/6--5/6------------------------|
D|-------3-5/6--5/6-----------------------3-3--5/6--5/6-------------1----------|
A|--3333-3-3/4--3/4-----------------------3-3--3/4--3/4--6-4--------1----------|
D|--3333-3-----------4-3-1--4-3-1--1-3-4--333-----------------8-6-5-1----------|
.... .



3.51 Chorus


4.18 until the end
E|-----------------------------------------------------------------------------|
B|-----------------------------------------------------------------------------|
G|-----------------------------------------------------------------------------|
D|-----------------------------------------------------------------------------|
A|--1111111111111111111111111111...--------------------------------------------|
D|-----------------------------------------------------------------------------|

--------------------------------------------------------------------------------

Compositor: (tarja/tuomas)

Encontrou algum erro na letra? Por favor, envie uma correção >

Compartilhe
esta música

Ouça estações relacionadas a Nightwish no Vagalume.FM

ÚLTIMAS

MIX DE MÚSICAS

ARTISTAS RELACIONADOS