Página inicial > Pop/Rock > N > Nick Jonas > London (Foolishly) (tablatura)

London (Foolishly) (tablatura)

Nick Jonas


Intro | Verso:
e|---------------------------------|
B|---0---0---0---0---0---0---0---0-|
G|---0---0---0---0---0---0---0---0-|
D|---------------------------------|
A|-7---9--10-----------------------|
E|-------------7---8---8---8---8---|
Another foggy night in the London town
where all the dreamers are asleep
no one understands what I have found
No... not even me

Refrão:
e|-----------------------------------------------------------------|
B|---0---0---0---0---0---0---0-------0---0---0---0---0---0---0---0-|
G|---0---0---0---0---0---0---0-------0---0---0---0---0---0---0---0-| x3
D|-----------------------------------------------------------------|
A|-------------------------------------------------5---5---5---5---|
E|-5---5---5---5---0---0---0---0-2-3---3---3---3-------------------|

e|---------------------------------------------------------|
B|---0---0---0---0---0---0---0---0---0---0---0---0---0---0-|
G|---0---0---0---0---0---0---0---0---0---0---0---0---0---0-|
D|---------------------------------------------------------|
A|-3---3---3---3---5---5---5---5---3---3---3---3-----5---6-|
E|---------------------------------------------------------|
Foolishly I fall
to the obvious pattern of it all
Carelessly I stop
I think change is just a friend that never called
Tragedies are alright
When it means it become, blessing in our lives
Could it be that I'm now stand corrected
Could it be that I'm now stand affected
by this blinding light
Blinding light...

Verso:
e|---------------------------------|
B|---0---0---0---0---0---0---0---0-|
G|---0---0---0---0---0---0---0---0-|
D|---------------------------------|
A|-7---9--10-----------------------|
E|-------------7---8---8---8---8---|
Big Ben breathing on my neck again
I feel my time is running out
But all this baggage I'm carrying
It's time to lay it down Hey

Refrão:
e|-----------------------------------------------------------------|
B|---0---0---0---0---0---0---0-------0---0---0---0---0---0---0---0-|
G|---0---0---0---0---0---0---0-------0---0---0---0---0---0---0---0-| x3
D|-----------------------------------------------------------------|
A|-------------------------------------------------5---5---5---5---|
E|-5---5---5---5---0---0---0---0-2-3---3---3---3-------------------|

e|---------------------------------------------------------|
B|---0---0---0---0---0---0---0---0---0---0---0---0---0---0-|
G|---0---0---0---0---0---0---0---0---0---0---0---0---0---0-|
D|---------------------------------------------------------|
A|-3---3---3---3---5---5---5---5---3---3---3---3-----5---6-|
E|---------------------------------------------------------|
Foolishly I fall
to the obvious pattern of it all
Carelessly I stop
I think change is just a friend that never called
Could it be that I'm now stand corrected
Could it be that I'm now stand affected

e|---------------------------------|
B|---0---0---0---0---0---0---0---0-|
G|---0---0---0---0---0---0---0---0-|
D|---------------------------------|
A|-7---9--10-----------------------|
E|-------------7---8---8---8---8---|
A cup of tea, I'm all my own tonight
Now I'm changing by this blinding light yeah

Refrão:
e|-----------------------------------------------------------------|
B|---0---0---0---0---0---0---0-------0---0---0---0---0---0---0---0-|
G|---0---0---0---0---0---0---0-------0---0---0---0---0---0---0---0-| x3
D|-----------------------------------------------------------------|
A|-------------------------------------------------5---5---5---5---|
E|-5---5---5---5---0---0---0---0-2-3---3---3---3-------------------|

e|---------------------------------------------------------|
B|---0---0---0---0---0---0---0---0---0---0---0---0---0---0-|
G|---0---0---0---0---0---0---0---0---0---0---0---0---0---0-|
D|---------------------------------------------------------|
A|-3---3---3---3---5---5---5---5---3---3---3---3-----5---6-|
E|---------------------------------------------------------|
Foolishly I fall
to the obvious pattern of it all
Carelessly I stop
I think change is just a friend that never called
Could it be that I'm now stand
Could it be that I'm changed by this blinding light
Blinding light

e|---------------------------------|
B|---0---0---0---0---0---0---0---0-|
G|---0---0---0---0---0---0---0---0-|
D|---------------------------------|
A|-7---9--10-----------------------|
E|-------------7---8---8---8---8---|

e|-------------------|
B|---0---0---0---0-0-|
G|---0---0---0---0-0-|
D|-------------------|
A|-7---9--10---------|
E|-------------7---8-|

Letra enviada por Br News Jonas

Encontrou algum erro na letra? Por favor, envie uma correção >

Compartilhe
esta música

Ouça estações relacionadas a Nick Jonas no Vagalume.FM

ÚLTIMAS

MIX DE MÚSICAS

ARTISTAS RELACIONADOS