Página inicial > Pop > M > Miley Cyrus > Right Here (tablatura)

Right Here (tablatura)

Miley Cyrus


this sounds right im only a little unsure about the first cord of the chorus but it
fine.

intro
e--------------------------|
a--5---5-------------------|
d----6---------------------|
g-7-7-7-7------------------|
b--------------------------|
e--------------------------|

chorus
all you have to do... ask me once...
e-------------------------------------------------------------------|
a-1010101010-------------------------1010101010---------------------|
d-9-9-9-9-9--77777---------99999-----9-9-9-9-9-77777-77777----------|
g-7-7-7-7-7--77777--77777--99999-----7-7-7-7-7-77777-77777-22222----|
b------------55555--77777--77777---------------55555-77777-22222----|
e-------------------55555----------------------------55555----------|
then repeat that once

Ass:Carolina Garcia da Silva

Encontrou algum erro na letra? Por favor, envie uma correção >

Compartilhe
esta música

Ouça estações relacionadas a Miley Cyrus no Vagalume.FM

ÚLTIMAS

MIX DE MÚSICAS

ARTISTAS RELACIONADOS