Megadeth
Página inicial > Heavy Metal > M > Megadeth > Elysian Fields (Tablatura)

Elysian Fields (Tablatura)

Megadeth


Eb Tuning

Intro:
------
(w.silly sound)
eb---|--------------------------------|--------------------------------|
Bb---|--------------------------------|--------------------------------|
Gb---|--------------------------------|--------------------------------|
Db---|--------------------------------|2-----------------------------/7|
Ab---|--------------------------------|2-----------------------------/7|
Eb---|--------------------------------|0-------------------------------|


Verse 1:
--------
Play 3x
||--------------------------------|--------------------------------||
||--------------------------------|--------------------------------||
||--------------5-----------------|--------------------------------||
||--5-2---------5---------------/7|--5-2---------3---3---5---5---/7||
||--5-2---------3---------------/7|--5-2---------3---3---5---5---/7||
||--------0-0-0---------------0---|--------0-0-0-------0-------0---||
. . . . . . . . .

|--------------------------------|--------------------------------|
|--------------------------------|--------------------------------|
|--------------5-----------------|--------------------------------|
|--5-2---------5---------------/7|--5-2---------3---3---5---5-----|
|--5-2---------3---------------/7|--5-2---------3---3---5---5-----|
|--------0-0-0---------------0---|--------0-0-0-------0-------3-0-|
. . . . . . . . . .

Bridge :
--------
Play 3x
||--------------------------------||--------------------------------|
||--------------------------------||--------------------------------|
||6-----5-5-----------------------||6-----5-5-----------------------|
||4-----3-3-------------5-5-------||4-----3-3-----------------------|
||--3-----------4-4-----3-3---3---||--3-----------4---4---3---3-----|
||----2-----5-2-2-2-0-2-----5---5-||----2-----5-2-2---2-2-1---1-1-1-|
. . . . . . . . . . . . . . . .

Chorus:
-------
* Slide from the 4 fret. Play 3x
||--------------------------------|--------------------------------||
||--------------------------------|--------------------------------||
||9-----8-----7-----6-----2---4p0-/5-5---4-----2-------------------||
||9-----9-----7-----7-----2---5p0-|5-5---5-----2--------7-5--------||
||----------------------0---------|----------------0-/44----0-/4-7-||
||--------------------------------|--------------------------------||
.

|--------------------------------|--------------------------------|
|--------------------------------|--------------------------------|
|9-----8-----7-----6------------|5-----4-----2-------------------|
|9-----9-----7-----7------------|5-----5-----2-------------------|
|--------------------------------|------------0-----------------/7|
|--------------------------------|------------------------------/5|


Verse 2:
--------
Play 3x
||--------------------------------|--------------------------------||
||--------------------------------|--------------------------------||
||--------------5-----------------|--------------------------------||
||--5-2---------5---------------/7|--5-2---------3---3---5---5---/7||
||--5-2---------3---------------/7|--5-2---------3---3---5---5---/7||
||--------0-0-0---------------0---|--------0-0-0-------0-------0---||
. . . . . . . . .

|--------------------------------|--------------------------------|
|--------------------------------|--------------------------------|
|--------------5-----------------|--------------------------------|
|--5-2---------5---------------/7|--5-2---------3---3---5---5-----|
|--5-2---------3---------------/7|--5-2---------3---3---5---5-----|
|--------0-0-0---------------0---|--------0-0-0-------0-------3-0-|
. . . . . . . . . .


Bridge :
--------
Play 3x
||--------------------------------||--------------------------------|
||--------------------------------||--------------------------------|
||6-----5-5-----------------------||6-----5-5-----------------------|
||4-----3-3-------------5-5-------||4-----3-3-----------------------|
||--3-----------4-4-----3-3---3---||--3-----------4---4---3---3-----|
||----2-----5-2-2-2-0-2-----5---5-||----2-----5-2-2---2-2-1---1-1-1-|
. . . . . . . . . . . . . . . .


Chorus:
-------
Play 3x
||--------------------------------|--------------------------------||
||--------------------------------|--------------------------------||
||9-----8-----7-----6-----2---4p0-/5-5---4-----2-------------------||
||9-----9-----7-----7-----2---5p0-|5-5---5-----2--------7-5--------||
||----------------------0---------|----------------0-/44----0-/4-7-||
||--------------------------------|--------------------------------||
.

|--------------------------------|--------------------------------|
|--------------------------------|--------------------------------|
|9-----8-----7-----6------------|5-----4-----2-------------------|
|9-----9-----7-----7------------|5-----5-----2-------------------|
|--------------------------------|------------0-------------------|
|--------------------------------|--------------------------5-6-7-|

.
Harmonica Solo:
---------------
Play 4x
||--------------------------------||
||--------------------------------||
||--------------------------------||
||--------------------------------||
||7-6-7~~~~~----5~~--------------||
||----------5-6-----5-6-3~~~5-6-7-||
. . . . .

Chorus:
-------
Play 3x
||--------------------------------|--------------------------------||
||--------------------------------|--------------------------------||
||9-----8-----7-----6-----2---4p0-/5-5---4-----2-------------------||
||9-----9-----7-----7-----2---5p0-|5-5---5-----2--------7-5--------||
||----------------------0---------|----------------0-/44----0-/4-7-||
||--------------------------------|--------------------------------||
.

|--------------------------------|--------------------------------|
|--------------------------------|--------------------------------|
|9-----8-----7-----6------------|5-----4-----2-------------------|
|9-----9-----7-----7------------|5-----5-----2-------------------|
|--------------------------------|------------0-------------------|
|--------------------------------|--------------------------------|


Play 3x
||--------------------------------|--------------------------------||
||--------------------------------|--------------------------------||
||9-----8-----7-----6-----2---4p0-/5-5---4-----2-------------------||
||9-----9-----7-----7-----2---5p0-|5-5---5-----2--------7-5--------||
||----------------------0---------|----------------0-/44----0-/4-7-||
||--------------------------------|--------------------------------||
.

|--------------------------------|--------------------------------|
|--------------------------------|--------------------------------|
|9-----8-----7-----6------------|5-----4-----2-------------------|
|9-----9-----7-----7------------|5-----5-----2-------------------|
|--------------------------------|------------0-------------------|
|--------------------------------|--------------------------------|

|--------------------------------|
|--------------------------------|
|--------------------------------|
|--------------------------------|
|--------------------------------|
|--------------------------------|


Encontrou algum erro na letra? Por favor, envie uma correção >

Compartilhe
esta música

Ouça estações relacionadas a Megadeth no Vagalume.FM

ÚLTIMAS

ESTAÇÕES

ARTISTAS RELACIONADOS