• Vagalume
  • A-Z
  • Estilos
  • Top 100
  • Playlists
  • Rádio
  • Hot Spots
  • Notícias
  • PLAY

    Instrumento:
    Capo: 1ªCasa
    
    Tom: E
    		
    Intro 2x: E  B5(9)  C#m  A5(9)
    
    Primeira Parte:
    E               B9
     Saí cantando, do chuveiro
    C#m                         A5(9)
      Eu sou o cara mais feliz do mundo inteiro
    E                        B9                   A5(9)
      Noite perfeita, tá na hora, quero te encontrar
    E                      B9
      Em frente ao espelho,  tô ensaiando
    C#m                      A5(9)
      A melhor forma de dizer que tô te amando
    E                          B9                   A5(9)
      Essa é minha chance, é agora, eu não posso errar
    C#m                     A5(9)
      Mas bem na hora de falar com você
          E                   B9
    Travei, comecei a gaguejar
    
    E|-------------------------------|
    B|-------------------------------|
    G|--9-9-9/8-8-8-8/4-4-4-4-4/5-5--|
    D|-------------------------------|
    A|-------------------------------|
    E|-------------------------------|
    
    C#m                   A5(9)
      E a saída é deixar acontecer
    E                   B9
     O coração se entregar
    
    Solo Durante o Refrão:
    E|---------------------------------------|
    B|--5-5\7--9\5--9/10---5-5\7--9\5--9/10--|
    G|---------------------------------------|
    D|---------------------------------------|
    A|---------------------------------------|
    E|---------------------------------------|
    
    Refrão:
        E
    Um beijo fala mais que mil palavras
        B9
    Um toque é bem mais que poesia
        F#m7(11)/C#
    No seu olhar enxergo a sua alma
          A5(9)
     Sua fala é uma linda melodia
         E
    Ninguém sabe explicar o que é o amor
         B9
    Ninguém vai ser feliz sem ser amado
         F#m7(11)/C#
    Meu coração de vez se entregou
        A5(9)
    Confesso que eu estou apaixonado
    
    E  B5(9)  C#m  A5(9)
    
    Solo:
    E|---------------------------------------------------------------------|
    B|--3/5-5-5-5--3/5-5-5-5--9\75/7-7-7-75/7-7-7-7--9\5-5-5--5-7-9-10---|
    G|---------------------------------------------------------------------|
    D|---------------------------------------------------------------------|
    A|---------------------------------------------------------------------|
    E|---------------------------------------------------------------------|
    
    E|--5-3-2-------------------|
    B|--------5-4^-3------------|
    G|---------------4---4-4/6--|
    D|-----------------5--------|
    A|--------------------------|
    E|--------------------------|
    
    C#m                     A5(9)
      Mas bem na hora de falar com você
          E                   B9
    Travei, comecei a gaguejar
    
    E|-------------------------------|
    B|-------------------------------|
    G|--9-9-9/8-8-8-8/4-4-4-4-4/5-5--|
    D|-------------------------------|
    A|-------------------------------|
    E|-------------------------------|
    
    C#m                   A5(9)
      E a saída é deixar acontecer
    E                   B9
     O coração se entregar
    
    Solo Durante o Refrão:
    E|---------------------------------------|
    B|--5-5\7--9\5--9/10---5-5\7--9\5--9/10--|
    G|---------------------------------------|
    D|---------------------------------------|
    A|---------------------------------------|
    E|---------------------------------------|
    
    Refrão:
        E
    Um beijo fala mais que mil palavras
        B9
    Um toque é bem mais que poesia
        F#m7(11)/C#
    No seu olhar enxergo a sua alma
          A5(9)
     Sua fala é uma linda melodia
         E
    Ninguém sabe explicar o que é o amor
         B9
    Ninguém vai ser feliz sem ser amado
         F#m7(11)/C#
    Meu coração de vez se entregou
        A5(9)
    Confesso que eu estou apaixonado
    
    E  B5(9)  Dm  Bb5(9)
    
    Solo:
    E|-------------------------------------------|
    B|--3/5-5-5-5--3/5-5-5-5--9\7--5/7-7-7-7--5--|
    G|-------------------------------------------|
    D|-------------------------------------------|
    A|-------------------------------------------|
    E|-------------------------------------------|
    
    E|---------------------------------------|
    B|---------------------------------------|
    G|--9/10-10-10-10-8-7------7-8-10-7-8----|
    D|--------------------7--7------------8--|
    A|---------------------------------------|
    E|---------------------------------------|
    
    E|--9/10-10-10-10-8-6-6-6--|
    B|-------------------------|
    G|-------------------------|
    D|-------------------------|
    A|-------------------------|
    E|-------------------------|
    
    Solo Durante o Refrão Final:
    
    E|-------------------------------------------|
    B|--6-6\8--10\6--10/11---6-6\8--10\6--10/11--|
    G|-------------------------------------------|
    D|-------------------------------------------|
    A|-------------------------------------------|
    E|-------------------------------------------|
    
    Refrão Final:
        F
    Um beijo fala mais que mil palavras
        C5(9)
    Um toque é bem mais que poesia
        Gm
    No seu olhar enxergo a sua alma
          Bb5(9)
     Sua fala é uma linda melodia
         F
    Ninguém sabe explicar o que é o amor
         C5(9)
    Ninguém vai ser feliz sem ser amado
         Gm
    Meu coração de vez se entregou
        Bb5(9)
    Confesso que eu estou apaixonado
    
    F  C5(9)  Gm  Bb5(9)
    
    E|-------------------------------------------------------|
    B|--4/6-6-6-64/6-6-6-64/6-6-6-6-6/8-8-6-5--------------|
    G|------------------------------------------5-5-5-5-5/7--|
    D|-------------------------------------------------------|
    A|-------------------------------------------------------|
    E|-------------------------------------------------------|
    
    E|------------5-7-8-8/9-8^--|
    B|------5-6-8---------------|
    G|--5-7---------------------|
    D|--------------------------|
    A|--------------------------|
    E|--------------------------|
    
    ( F )


    Letra enviada por Ricardo Alexandre
    Encontrou algum erro na letra? Por favor, envie uma correção »

    Comente
    user 300 caracteres restantes. Enviar

    Todas as letras de Luan Santana

    Publicidade
    Notícias
    Mais notícias »
    Hot Spot
    Top Músicas do Vagalume
    Top 100 »

    As informações deste site são postadas integralmente pelos usuários. É importante dizer que é possível que os dados estejam desatualizados ou incorretos, sendo assim, o Vagalume exime-se de qualquer responsabilidade sobre as informações publicadas.Caso haja interesse em remover ou alterar alguma informação, entre em contato conosco.


    É permitida somente a visualização no site das letras de músicas encontradas aqui, vedada sua reprodução através de quaisquer outros meios (Lei 9610/98).Todas as letras de músicas são propriedade dos seus respectivos autores e divulgadas somente para fins educacionais.All lyrics are property and copyright of their owners. All lyrics are provided for educational purposes only.