Página inicial > Rock Alternativo > L > Linkin Park > One Step Closer (Tablatura)

One Step Closer (Tablatura)

Linkin Park


*=harmonic
pm=palm mute
intro
eb -----------------------
Bb ----------------------- x4
F# -----------------------
c# -----------------------
G# ----------*7-----------
C# --0--*5-0----8-7--0-3--
pm.....................

after intro
eb ----------------------
Bb ---------------------- x4
F# ---------9---------5--
c# --0-0--0-x---8-7-0-x--
G# --0-0--0-7---8-7-0-3--
C# --0-0--0-----8-7-0----

verse
eb ----------------------
Bb ---------------------- x8
F# ---------9---------5--
c# --0-0--0-x---8-7-0-x--
G# --0-0--0-7---8-7-0-3--
C# --0-0--0-----8-7-0----
pm....................

pre chorus 1
eb ------------------------------------------
Bb ------------------------------------------ x1
F# ------------------------------------------
c# --5-5--x-x---x-5-5--x-x---x-5-5--x-x---x--
G# --5-5--x-x---x-5-5--x-x---x-5-5--x-x---x--
C# --5-5--x-x---x-5-5--x-x---x-5-5--x-x---x--

chorus
eb ------------------------------------------
Bb ------------------------------------------ x2
F# ------------------------------------------
c# --0-0-12-12--10-10-7-7--8-8-5-5--7-7-3-3--
G# --0-0-12-12--10-10-7-7--8-8-5-5--7-7-3-3--
C# --0-0-12-12--10-10-7-7--8-8-5-5--7-7-3-3--

verse
eb ----------------------
Bb ----------------------
F# ---------9---------5--
c# --0-0--0-x---8-7-0-x--
G# --0-0--0-7---8-7-0-7--
C# --0-0--0-----8-7-0----
pm....................

pre chorus 2
eb --------------------------------*5-*5-*5-*5--
Bb ---------------------------------------------
F# ---------------------------------------------
c# --5-5--x-x---x-5-5--x-x---x-5-5--------------
G# --5-5--x-x---x-5-5--x-x---x-5-5--------------
C# --5-5--x-x---x-5-5--x-x---x-5-5--------------

chorus
eb ------------------------------------------
Bb ------------------------------------------ x3
F# ------------------------------------------
c# --0-0-12-12--10-10-7-7--8-8-5-5--7-7-3-3--
G# --0-0-12-12--10-10-7-7--8-8-5-5--7-7-3-3--
C# --0-0-12-12--10-10-7-7--8-8-5-5--7-7-3-3--

chorus cont.
eb -----------------------------------------------------------
Bb ----------------------------------------------------------- x1
F# -----------------------------------------------------------
c# --0-0-12-12--10-10-7-7--8-8-5-5--7-7-3-3--1-1-1-1-1-1-1-1--
G# --0-0-12-12--10-10-7-7--8-8-5-5--7-7-3-3--1-1-1-1-1-1-1-1--
C# --0-0-12-12--10-10-7-7--8-8-5-5--7-7-3-3--1-1-1-1-1-1-1-1--

bridge (where the singer iz saying "shut up")
eb -----------------------
Bb ----------------------- x8
F# -----------------------
c# --1-0-x-x-x-1-3-1-0-6--
G# --1-0-x-x-x-1-3-1-0-6--
C# --1-0-x-x-x-1-3-1-0-6--

chorus
eb ------------------------------------------
Bb ------------------------------------------ x3
F# ------------------------------------------
c# --0-0-12-12--10-10-7-7--8-8-5-5--7-7-3-3--
G# --0-0-12-12--10-10-7-7--8-8-5-5--7-7-3-3--
C# --0-0-12-12--10-10-7-7--8-8-5-5--7-7-3-3--

chorus cont.
eb -----------------------------------------------------------
Bb ----------------------------------------------------------- x1
F# -----------------------------------------------------------
c# --0-0-12-12--10-10-7-7--8-8-5-5--7-7-3-3--1-1-1-1-1-1-1-1--
G# --0-0-12-12--10-10-7-7--8-8-5-5--7-7-3-3--1-1-1-1-1-1-1-1--
C# --0-0-12-12--10-10-7-7--8-8-5-5--7-7-3-3--1-1-1-1-1-1-1-1--

well there u go that's the song peace out.

Encontrou algum erro na letra? Por favor, envie uma correção >

Compartilhe
esta música

Ouça estações relacionadas a Linkin Park no Vagalume.FM

ÚLTIMAS

MIX DE MÚSICAS

ARTISTAS RELACIONADOS