Página inicial > Rock Alternativo > L > Linkin Park > Figure.0.9 (Tablatura)

Figure.0.9 (Tablatura)

Linkin Park


Dropped D and tuned down 1/2 step (Dropped Db or C#)
As musicas do Linkin Park sempre usam uma afinação diferente , ACUSTUME-SE


Intro
eb--------------------------------------------------
Bb--------------------------------------------------
Gb--------------------------------------------------
Db--------------------------------------------------
Ab----------8----------8----------8----5h6-5h6---5--
Db---<5>--0-----<5>--0-----<5>--0-------------------

(continued)
eb--------------------------------------------------
Bb--------------------------------------------------
Gb--------------------------------------------------
Db------------------------------------0h1-1-1-1--0h1
Ab----------8----------8----------8---0h1-1-1-1--0h1
Db---<5>--0-----<5>--0-----<5>--0-----0h1-1-1-1--0h1


Riff 1
eb--------------------------------------------------
Bb--------------------------------------------------
Gb--------------------------------------------------
Db--0-------5---0-------5---0-------5--0h1-1-1-1-0h1
Ab--0-------3---0-------3---0-------3--0h1-1-1-1-0h1
Db--0--<5>--3---0--<5>--3---0--<5>--3--0h1-1-1-1 0h1


Verse
eb--------------------------------------------------
Bb--------------------------------------------------
Gb--------------------------------------------------
Db--0-----------0-----------0--------0h1-1-1-1--0h1-
Ab--0-----------0-----------0--------0h1-1-1-1--0h1-
Db--0--<5>------0--<5>------0--<5>---0h1-1-1-1--0h1-


Riff 2
eb--------------------------------------------------
Bb--------------------------------------------------
Gb---------8-----------8----------8-----------8-----
Db--0--0---8----0--0---8---0--0---8----0--0---8-----
Ab--0--0---6----0--0---6---0--0---6----0--0---6-----
Db--0--0--------0--0-------0--0--------0--0----------


Chorus
eb-------------------------------------------------
Bb--------------------------------------------------
Gb--------------------------------------------------
Db--0-0-0-0--8-8-10-8--3-3-3-3--5-5-5--7-7-7--------
Ab--0-0-0-0--8-8--8-8--3-3-3-3--5-5-5--7-7-7--------
Db--0-0-0-0--8-8--8-8--3-3-3-3--5-5-5--7-7-7--------




Bridge
eb--------------------------------------------------
Bb--------------------------------------------------
Gb--------------------------------------------------
Db--1--0--x-x-x--0-2-3---4----1--0--x-x-x--0-2-3---0
Ab--1--0--x-x-x--0-2-3--------1--0--x-x-x--0-2-3----
Db--1--0--x-x-x--0-2-3--------1--0--x-x-x--0-2-3----

(continued)
eb--------------------------------------------------
Bb--------------------------------------------------
Gb--------------------------------------------------
Db--1--0--x-x-x--0-2-3--4---1--0--x-x-x--0-2-3--x xx
Ab--1--0--x-x-x--0-2-3------1--0--x-x-x--0-2-3--x-xx
Db--1--0--x-x-x--0-2-3------1--0--x-x-x--0-2-3--x-xx



Intro
Riff 1
Verse
Riff 2
Chorus
Verse
Riff 1
Riff 2
Chorus
Post-Chorus
Riff 2
Bridge
Chorus
Post-Chorus

nothing ever stops all these thoughts
and the pain attached to them
sometimes i wonder why this is happening
it's like nothing i can do will distract me when
i think of how i shot myself in the back again
cause from the infinite words i could say / i
put all the pain you gave to me on display / but didn't
realize / instead of setting it free / i
took what i hated and made it a part of me
[it never goes away]

And now
You've become a part of me
you'll always be right here
You've become a part of me
you'll always be my fear
I can't separate myself from what i've done
I've given up a part of me
I've let myself become you

hearing your name / the memories come back again
i remember when it started happening
i'd see you in every thought i had and then
the thoughts slowly found words attached to them
and i knew as they escaped away i was
committing myself to them / and every day i
regret saying those things / cause now i see / that i
took what i hated and made it a part of me

[it never goes away]

And now
You've become a part of me
you'll always be right here
You've become a part of me
you'll always be my fear
I can't separate myself from what i've done
I've given up a part of me
I've let myself become you

Get away from me
Gimme my space back / you gotta just go
Everything comes down to memories of you
I've kept it in but now i'm letting you know
I've let you go

And now
You've become a part of me
you'll always be right here
You've become a part of me
you'll always be my fear
I can't separate myself from what i've done
I've given up a part of me
I've let myself become you

I've let myself become you
I've let myself become lost inside these
thoughts of you
Giving up a part of me
I've let myself become you

Encontrou algum erro na letra? Por favor, envie uma correção >

Compartilhe
esta música

Ouça estações relacionadas a Linkin Park no Vagalume.FM

ÚLTIMAS

MIX DE MÚSICAS

ARTISTAS RELACIONADOS