Página inicial > Rock Alternativo > L > Linkin Park > Crawling (tablatura)

Crawling (tablatura)

Linkin Park


afinação:eb
Intro: (4x)

eb ||
------12------19--19----16----14---12----11-12--11---19(3x)

refrão
Mike

|----------------------|
|---------------------|
|-7-------------------|
|-7---8---3---10---7--|
|-5---8---3---10---7--|
|-----6---1---8----5--|

Brad

|-----------------------|
|-----------------------|
|-11---5---10---9---12--|
|--x---x----x---x----x--|
|--9---3----8---7---10--|
|-----------------------|



Crawling in my skin
This wounds they will not heal
Fear is how I fall
Confusing what is real
There's something inside me that pulls beneath the
surface
Consuming/Confusing
This lack of self-control I fear is never-ending
Controlling/I can't seem
To find myself again
My walls are closing in
[Without a sense of confidence I´m convinced
There´s just too much pressure to take]
I've felt this way before
So insecure
Discomfort, endlessly has pulled itself upon me
Distracting/Reacting
Against my will I stand beside my own reflection
It's haunting how I can't seem...

Encontrou algum erro na letra? Por favor, envie uma correção >

Compartilhe
esta música

Ouça estações relacionadas a Linkin Park no Vagalume.FM

ÚLTIMAS

MIX DE MÚSICAS

ARTISTAS RELACIONADOS