• Vagalume
  • A-Z
  • Estilos
  • Top 100
  • Playlists
  • Rádio
  • Hot Spots
  • Notícias
  • PLAY

    Instrumento:
    É o que devemos fazer...
    E|---------------------|--------------|-------------------------------------------
    A|---------------------|--------------|-------------------------------------------
    D|---------------------|--------------|-------------------------------------------
    G|-------12-11-12-12---|-------12-----|-------------------------------------------
    B|-12-10---------------|-12-10----10--|-10-10-10-10-10-10-10-10-10-9-9-7-7-5-5----
    E|---------------------|--------------|----10-10----10-10----10-10-9-9-7-7-5-5----
    
    era preciso...              solo:
    E|---8--14--10-10-9--12-10--|-------------------------|---5---5---5---5----------|---------------------5-
    B|-8----14--8--8--10-10-10--|-------------------------|-7---7---7---7---7---7-5--|-3-----3-----3-----3---
    G|--------------------------|-------------------------|-------------------7------|---2-4---2-4---2-4-----
    D|--------------------------|------------------7-9-7--|--------------------------|-----------------------
    A|--------------------------|-9-7-------7-9-10--------|--------------------------|-----------------------
    E|--------------------------|-----10-10---------------|--------------------------|-----------------------
    
    (acústico)
    Intro:
    E|-------------------------
    B|-------------------------
    G|-11-11-11-11-11---9-7-6--
    D|-------------------------
    A|-9--9--9--9--9----7-5-4--
    E|-------------------------
    
    solo:
    E|------------------7-7-5--7-9-10--2-3-4-5-7/9-----0---0---0---0---0---0---0---0---0---0--|--5--
    B|-----------------------------------------------7/5---5---5---5---5---5---5---5---5---5--|--5--
    G|------------------7-7-6--7-9-11--3-4-5-6-7/9-------7/6-7/6-7/6-7/6-6/4-6/4-6/4-6/4-6/4--|-----
    D|-4-2-0---0--2-4-5-----------------------------------------------------------------------|-----
    A|-------4--------------------------------------------------------------------------------|-----
    E|----------------------------------------------------------------------------------------|-----
    
    
    George Israel / Paula Toller
    
    Intro: D G A
    
                D   G           A
    Eu tive um sonho vou te contar
             Em         D      A
    Eu me atirava do oitavo andar
              C             D
    E era preciso fechar os olhos
                G           A     D
    Prá não morrer e não me machucar
    
              Em       C
    É o que devemos fazer
               D       A
    Não temos que ter medo
              Em       C   A7
    É o que devemos fazer
    
    
                D   G           A
    Eu tive um sonho muitos soldados
             Em         D      A
    Me procuravam dentro do meu prédio
              C             D
    E era preciso voar pelas escadas
                G           A     D
    Prá não deixar que eles chegassem perto
    
              Em       C
    É o que devemos fazer
               D       A
    Não temos que ter medo
              Em       C   A7
    É o que devemos fazer
    
                     G     C9              D  D4
    Não deixe de cruzar o seu olhar com o meu
            G                  A       D
    Eu vou jogar meu corpo em cima do seu
                     G     C9              D  D4
    Não deixe de cruzar o seu olhar com o meu
            G                  A       D G A
    Eu vou jogar meu corpo em cima do seu
    


    Encontrou algum erro na letra? Por favor, envie uma correção »

    Comente
    user 300 caracteres restantes. Enviar

    Todas as letras de Kid Abelha

    Publicidade
    Notícias
    Mais notícias »
    Hot Spot
    Top Músicas do Vagalume
    Top 100 »

    As informações deste site são postadas integralmente pelos usuários. É importante dizer que é possível que os dados estejam desatualizados ou incorretos, sendo assim, o Vagalume exime-se de qualquer responsabilidade sobre as informações publicadas.Caso haja interesse em remover ou alterar alguma informação, entre em contato conosco.


    É permitida somente a visualização no site das letras de músicas encontradas aqui, vedada sua reprodução através de quaisquer outros meios (Lei 9610/98).Todas as letras de músicas são propriedade dos seus respectivos autores e divulgadas somente para fins educacionais.All lyrics are property and copyright of their owners. All lyrics are provided for educational purposes only.