Katy Perry
Página inicial > Pop > K > Katy Perry > Waking Up In Vegas (tablatura)

Waking Up In Vegas (tablatura)

Katy Perry


|---------------------| |--------------------------------------|
|---------------------| |--------------------------------------|
|---------------------| |--------------------------------------|
|--7-7-7-2-2-2-3~~----| |--10-10-10-8-8-8-7-7-7-5-5-5-7h8p7----|
|---------------------| |--------------------------------------|
|---------------------|x3 |--------------------------------------|

|------------------------------------------------------|
|------------------------------------------------------|
|---------------------------------14----12----10----9~-|
|---5~---7~---3~------5~---7~--10----10----10----10----|
|-3----5----1-------3----5-----------------------------|
|------------------------------------------------------|

|----------------------------|
|----------------------------|
|----------------------------|
|------5-5--3-3--3-3-3-3/5-5-|
|-3-3--3-3--1-1--1-1-1-1/3-3-|
|-1-1------------------------|x4

|---------------------| |--------------------------------------|
|---------------------| |--------------------------------------|
|---------------------| |--------------------------------------|
|--7-7-7-2-2-2-3~~----| |--10-10-10-8-8-8-7-7-7-5-5-5-7h8p7----|
|---------------------| |--------------------------------------|
|---------------------|x3 |--------------------------------------|


|------------------------------------------------------|
|------------------------------------------------------|
|---------------------------------14----12----10----9~-|
|---5~---7~---3~------5~---7~--10----10----10----10----|
|-3----5----1-------3----5-----------------------------|
|------------------------------------------------------|


|----------------------------| |----------------------------|
|----------------------------| |----------------------------|
|----------------------------| |----------------------------|
|------5-5--3-3--3-3-3-3/5-5-| |------5-5--3-3--3-3-3-3/7-5-|
|-3-3--3-3--1-1--1-1-1-1/3-3-| |-3-3--3-3--1-1--1-1-1-1/5-3-|

Letra enviada por

Encontrou algum erro na letra? Por favor, envie uma correção >

Compartilhe
esta música

Ouça estações relacionadas a Katy Perry no Vagalume.FM

ÚLTIMAS

ESTAÇÕES

ARTISTAS RELACIONADOS