• Vagalume
  • A-Z
  • Estilos
  • Top 100
  • Playlists
  • Rádio
  • Hot Spots
  • Notícias
  • Play
    PLAY

    INTRO:
    e|-------------|-------------|-------------|
    B|-------------|-------------|-------------|
    G|-------------|5--5-3-------|-------------| Até "Well I'm done"
    D|---5--5------|-------------|-------------|
    A|---------2-3-|-------------|-------------|
    E|--3--3-------|-------------|-------------|

    e|---------------------------------------|
    B|---------------------------------------|
    G|-------------7--7----------------------| Até "Empty conversations"
    D|---2--2--------------7---7-----7--7----|
    A|---------4-5---5-----------------------|
    E|--0--0------------4-5--5---4-5--5------|


    G5 C5 G5
    I told you I made dinner plans
    C5 G5
    For you and me and no one else
    C5
    That don't include your crazy friends
    Em5 D5
    Well I'm done with awkward situations
    A5
    Empty conversations

    Em5 C5
    Oooo, this is an SOS
    G5
    Don't wanna second guess
    D5
    This is the bottom line
    Em5
    It’s true
    C5
    I gave my all for you
    G5
    Now my heart’s in two
    D5 A5
    And I can't find the other half
    C5 G5
    It’s like I’m walkin’ on broken glass
    D5 A 5
    Better believe I bled
    C5
    It’s a call I’ll never get

    INTRO:
    e|-------------|-------------|-------------|
    B|-------------|-------------|-------------|
    G|-------------|5--5-3-------|-------------| Até "Well I'm done"
    D|---5--5------|-------------|-------------|
    A|---------2-3-|-------------|-------------|
    E|--3--3-------|-------------|-------------|


    e|---------------------------------------|
    B|---------------------------------------|
    G|-------------7--7----------------------| Até "Empty conversations"
    D|---2--2--------------7---7-----7--7----|
    A|---------4-5---5-----------------------|
    E|--0--0------------4-5--5---4-5--5------|


    G5 C5 G5
    So this is where the story ends
    C5
    A conversation on IM
    Em5
    Well I'm done with texting
    D5 A5
    Sorry for the miscommunication

    Em5 C5
    Oooo, this is an SOS
    G5
    Don't wanna second guess
    D5
    This is the bottom line
    Em5
    It’s true
    C5
    I gave my all for you
    G5
    Now my heart’s in two
    D5 A5
    And I can't find the other half
    C5 G5
    It’s like I’m walkin’ on broken glass
    D5 A5
    Better believe I bled
    C5
    It’s a call I’ll never get

    Em5 D5
    Next time I see you
    A5
    I’m giving you a high Five
    C5
    Cause hugs are overrated
    D5
    Just FYI

    Chorus 2X

    Encontrou algum erro na letra? Por favor, envie uma correção »

    Comente
    user 300 caracteres restantes. Enviar

    Todas as letras de Jonas Brothers

    Publicidade
    Notícias
    Mais notícias »
    Hot Spot
    Top Músicas do Vagalume
    Top 100 »

    As informações deste site são postadas integralmente pelos usuários. É importante dizer que é possível que os dados estejam desatualizados ou incorretos, sendo assim, o Vagalume exime-se de qualquer responsabilidade sobre as informações publicadas.Caso haja interesse em remover ou alterar alguma informação, entre em contato conosco.


    É permitida somente a visualização no site das letras de músicas encontradas aqui, vedada sua reprodução através de quaisquer outros meios (Lei 9610/98).Todas as letras de músicas são propriedade dos seus respectivos autores e divulgadas somente para fins educacionais.All lyrics are property and copyright of their owners. All lyrics are provided for educational purposes only.