• Vagalume
  • A-Z
  • Estilos
  • Top 100
  • Playlists
  • Rádio
  • Hot Spots
  • Notícias
  • Play
    PLAY

    Verse:
    E C G D E C G
    e|-----------------------------------------------------------------------|
    B|-----------------------------------------------------------------------|
    G|---9-9---5-5---------7-7-----9-9---5-5---------------------------------|
    D|---9-9---5-5---5-5---7-7-----9-9---5-5---5-----------------------------|
    A|---7-7---3-3---5-5---5-5-----7-7---3-3---5-----------------------------|
    E|---------------3-3-----------------------3-----------------------------|
    E C G D E C G
    e|-----------------------------------------------------------------------|
    B|-----------------------------------------------------------------------|
    G|---9-9---5-5---------7-7-----9-9---5-5---------------------------------|
    D|---9-9---5-5---5-5---7-7-----9-9---5-5---5-----------------------------|
    A|---7-7---3-3---5-5---5-5-----7-7---3-3---5-----------------------------|
    E|---------------3-3-----------------------3-----------------------------|
    "you never listen to me, i know im better off alone"
    Pre Chorus:
    C G C E D
    e|-----------------------------------------------------------------------|
    B|-----------------------------------------------------------------------|
    G|---5-5-5-5-------------5-5-5-5---9-9-9-9---7-7-7-7---------------------|
    D|---5-5-5-5---5-5-5-5---5-5-5-5---9-9-9-9---7-7-7-7---------------------|
    A|---3-3-3-3---5-5-5-5---3-3-3-3---7-7-7-7---5-5-5-5---------------------|
    E|-------------3-3-3-3---------------------------------------------------|
    "Everybody knows it's true, They all see through you"
    C G C E D
    e|-----------------------------------------------------------------------|
    B|-----------------------------------------------------------------------|
    G|---5-5-5-5-------------5-5-5-5---9-9-9-9---7-7-7-7---------------------|
    D|---5-5-5-5---5-5-5-5---5-5-5-5---9-9-9-9---7-7-7-7---------------------|
    A|---3-3-3-3---5-5-5-5---3-3-3-3---7-7-7-7---5-5-5-5---------------------|
    E|-------------3-3-3-3---------------------------------------------------|
    "No it won't be hard to do, Throw away myself from you"
    C Cm
    e|-----------------------------------------------------------------------|
    B|---------------------4-4-4---------------------------------------------|
    G|---5-5-5-5-5-5-5-5---5-5-5---------------------------------------------|
    D|---5-5-5-5-5-5-5-5---5-5-5---------------------------------------------|
    A|---3-3-3-3-3-3-3-3---3-3-3---------------------------------------------|
    E|-----------------------3-3---------------------------------------------|
    "oooooohhhh"
    Chorus:
    F#-F#/F-E-C
    e|--------------------------------------------------------|
    B|------------9-------------------------------------------|
    G|---12-12-9-10-------------------------------------------|
    D|---12-12-9-10-------------------------------------------|
    A|---10-9--7-8--------------------------------------------|
    E|--------------------------------------------------------|
    Bridge:
    E A D F# F#/F C Cm
    e|--------------------------------------------------------|
    B|---------------------4----------------------------------|
    G|---9-6-7-12-12-----5-5----------------------------------|
    D|---9-7-7-12-12-----5-5----------------------------------|
    A|---7-7-5-10-9------3-3----------------------------------|
    E|-----5--------------------------------------------------|

    Letra enviada por Bruna Saraiva Melo
    Encontrou algum erro na letra? Por favor, envie uma correção »

    Comente
    user 300 caracteres restantes. Enviar

    Todas as letras de Jonas Brothers

    Publicidade
    Notícias
    Mais notícias »
    Hot Spot
    Top Músicas do Vagalume
    Top 100 »

    As informações deste site são postadas integralmente pelos usuários. É importante dizer que é possível que os dados estejam desatualizados ou incorretos, sendo assim, o Vagalume exime-se de qualquer responsabilidade sobre as informações publicadas.Caso haja interesse em remover ou alterar alguma informação, entre em contato conosco.


    É permitida somente a visualização no site das letras de músicas encontradas aqui, vedada sua reprodução através de quaisquer outros meios (Lei 9610/98).Todas as letras de músicas são propriedade dos seus respectivos autores e divulgadas somente para fins educacionais.All lyrics are property and copyright of their owners. All lyrics are provided for educational purposes only.