Joe Satriani
Página inicial > Instrumental > J > Joe Satriani > Into The Light (tablatura)

Into The Light (tablatura)

Joe Satriani


----15b17-15-13-|-15---------|---15b-15-13|15--20/15-----|--13-
-13-------------|------------|13------------|-------------|------
----------------|------------|--------------|-------------|------
----------------|------------|--------------|-------------|------
----------------|------------|--------------|-------------|------
----------------|------------|--------------|-------------|------


--13/12-12/10-10-8/10|-12-12b-12-12--------|------------------|---------------
---------------------|--------------15/13--|-10/810h12h13-13b|-13------------
---------------------|---------------------|------------------|---------------
---------------------|---------------------|------------------|---------------
---------------------|---------------------|------------------|---------------
---------------------|---------------------|------------------|---------------


-----|-----------------------------------------------------------------|------
-----|--12-12b-10p8h12/13p12p10h13p10h12bp10h13p10h12p10/12h13h15------|------
-----|-x---------------------------------------------------------------|------
-----|-----------------------------------------------------------------|------
-----|-----------------------------------------------------------------|------
-----|-----------------------------------------------------------------|------


-------------------------h8h10h12p10p8----------------------------------------
-15/13p12p10/8h10p8h10h12------------h12p8h10h12p10p8-------------------------
-----------------------------------------------------h12p9h10h12p10p9/7-------
------------------------------------------------------------------------------
------------------------------------------------------------------------------
------------------------------------------------------------------------------


-------------------------|----------------------------------------------------
-------------------------|----------------------------------------------------
-------------------------|----------------------------------------------------
-10p9p7h9h10p9p7---------|-------h9h10h12p10p9/7h9-10p9p7---------------------
----------------h10p8p7h8|8h10h12---------------------------------------------
-------------------------|----------------------------------------------------


-----------------------------------------------|------------------------------
-----------------------------------------------|------------------------------
-----------------------------------------------|------------------------------
-----------------------------------------------|------------------------------
-h10p8p7h8h10p8p7/8h10h12p10p87---------------|-----------------------h2h3---
--------------------------------10p8p7h8-8/108|-8/5h7p5p3h5-5p3p1h3p1h3------


-------------------------|----------------------------------------------------
-------------------------|----------------------------------------------------
-------------------------|----------------------------------------------------
-------------------------|----------------------------------------------------
-3h5p3p2h3h5/7---/17/3-3h|5-t7p5p3h5-t7p5p3h5-t7p5-t7p5-t8p7/8-t10p8p7h8p7/5h-
-------------------------|----------------------------------------------------


------------------------------------------------------------------------------
------------------------------------------------------------------------------
------------------------------------------------------------------------------
------------------------------------------------------------------------------
-7-t8p7/8-t10p8-t12p10-12p10p8-/10h12p10h12-t15p12h14p12/10h12p10/8-----------
------------------------------------------------------------------------------


---------------------------------------------------------15-17-19-20-20b-20|--
--------------------------------------------------15-17-18-----------------|--
------------------------------------------14-16-17-------------------------|--
-----------------------------------14-15-17--------------------------------|--
-7h8p7/5h7p5/3-3-3-2h3-/14-14-15-17----------------------------------------|--
---------------------------------------------------------------------------|--


-20/-------|-------15b-15-12-|-15------------|---------15b-15-13-15-t20p15----
-----------|-/15-12----------|---------------|-------13-----------------------
-----------|-----------------|---------------|--------------------------------
----/2-----|3----------------|---------------|--------------------------------
----/3--3-3|3----------------|---------------|--------------------------------
-----------|-----------------|---------------|--------------------------------


-t20p15-15|--13-13/12-12/10-10-------8-10-|-10/12-12b--12---------|-----------
----------|-------------------------------|-----------------15/13-|-/8/10-12--
----------|-------------------------------|-----------------------|-----------
----------|-------------------------------|-----------------------|-----------
----------|-------------------------------|-----------------------|-----------
----------|-------------------------------|-----------------------|-----------


------------|--------------------------------|---------------|-------------|--
-13-13-13b--|--13---17b--13------------------|---------------|-------------|--
------------|--------9b-----12/10--14b-12-10-|-10/12---------|-12(fb)------|--
------------|------------10--5/3----7b--5--3-|--3/5----------|-------------|--
------------|--------------------------------|---------------|-------------|--
------------|--------------------------------|---------------|-------------|--

Encontrou algum erro na letra? Por favor, envie uma correção >

Compartilhe
esta música

Ouça estações relacionadas a Joe Satriani no Vagalume.FM

ÚLTIMAS

ESTAÇÕES

ARTISTAS RELACIONADOS