Página inicial > Hard Rock > G > Guns N' Roses > Don't Cry (tablatura)

Don't Cry (tablatura)

Guns N' Roses


Intro: Clean Electric
Am Dm G
|-----|--------0-------------1---------------3-----------------------|
|-----|----------1---------3---3---------------3---------------------|
|-----|------2-----2-----2-------2---------0-----0-------0-----0-----|
|-----|----2---------0-0-----------------0-------------2-----0-------|
|-----|--0-------------------------0---2-----------0-3-----2-----3-2-|
|--3--|------------------------------3-------------------------------|

Am Dm G
|-------0-------------1--------------------------|
|---------1---------3---3------------------------|
|-----2-----2-----2-------2---------0------------|
|---2---------0-0-----------------0-----------2--|
|-0-------------------------0---2-------------0--|
|-----------------------------3---------2-3-4----|

Verse: Clean Electric
Rhy. Fig. 1 End Rhy. Fig. 1
Am Dm G *
|-------0-------------1---------------3-------|-----------------|
|---------1---------3---3---------------3-----|-----------------|
|-----2-----2-----2-------2---------0-----0---|-----0-----0-----|
|---2---------0-0-----------------0-----------|---0-----0-------|
|-0-------------------------0---2-----------0-|-3-----2-----3-2-|
|-----------------------------3---------------|-----------------|

* Last time before 2nd and 3rd chorus replace
remainder of Rhy. Fig. 1 with Rhy. Fill 1.

Rhy. Fill 1 End Rhy. Fill 1
C G/B Am G
|----------------------------------|
|-------1-------3-------1----------|
|-----0-------0-------2---------0--|
|---2-------0-------2---------0----|
|-3-------2-------0---------2------|
|-------------------------3--------|

(w/Rhy. Fig. 1)
Talk to me softly
There's something in your eyes
Don't hang your head in sorrow
And please don't cry
I know how you feel inside I've
I've been there before
Somethin's changin' inside you
And Don't you know

Chorus: Clean Electric
F G Am
|--------------------------------|------------------0--|--------------------|
|--1-------1-----1----------3-3--|--------0-h-1--------|--1-----0-h-1-------|
|--0-h-2---0-h-2-0-h-2------0-0--|------2-------2------|----2---------2-p-0-|
|--3-------3-----3--------0------|----2-----------2----|------2-------------|
|--------------------------------|--0------------------|--------------------|
|-----------------------3--------|---------------------|--------------------|


F G Am F G
|--------1-------------|------------0--0-------------|------1-----------3---|
|------1---1-------3---|------0----------3--3-1------|----1---1-----3-3---3-|
|----2-------2---0-----|----2-----2-------------2----|--2-------2---0-------|
|--3-----------0-----0-|--------2-----------------2--|--3-----------0-------|
|----------------------|--0--------------------------|----------------------|
|----------------------|-----------------------------|----------------------|

C** G/B Am G F G Am
|-----------------------------------|------1--------3----|--0-------|
|--------1-------1-------1----------|----1---1--3-3---3--|--1-------|
|------0-------0-------2---------0--|--2--------0--------|--2----2--|
|----2-------0-------2---------0----|--3--------0--------|--2--2----|
|--3-------2-------0---------2------|--------------------|--0-------|
|--------------------------3--------|--------------------|----------|

Repeat Verse w/Additional Lyrics: Verse: 2
Repeat Chorus w/Rhy. Fill 2 at **

Rhy. Fill 2 End Rhy. Fill 2
C5 G5 A5 G5 F5 G5 A5
|-----------|------------|-----------------|
|-----------|------------|-----------------|
|--5--------|------------|-----------------|
|--5----5---|---7----5---|---3----5----7---|
|--3----5---|---7----5---|---3----5----7---|
|-------3---|---5----3---|---1----3----5---|

Chord progression over the solo:
D5 F5 | G5 A5G5 | F5 G5 | A5 G5|
/ . / . / . / . | / . / . / . / . | / . / . / . / . | / . / . / . / . |

F5 G5 | E5 F5 | F5 G5 | A5
/ . / . / . / . | / . / . / . / . | / . / . / . / . | /...............|

Solo:
|---------------------------------------------------------------------|
|---------------------------------------8~~-----------8-8-------------|
|------------7^rp5--7-(7)~~~--r7p5--7^-------r7p5--7^-----r7----5^/-|
|-7~~~~~~~~~----------------------------------------------------------|
|---------------------------------------------------------------------|
|---------------------------------------------------------------------|

|---------------------------------------------------------------------|
|-----------------------------------------13^(2 steps)--13^(1/4 step)-|
|-7/9-9/10--------------------------12h14-----------------------------|
|----------------------10h12-12/14------------------------------------|
|-5/7--7/8--8h10-10/12------------------------------------------------|
|---------------------------------------------------------------------|

|-------------------------------------------------------------------|
|-------------------------------------------------------------------|
|-14~~~--12---------------------------------------------------------|
|-----------14-13h14p13p12-13p12-10-12p10---------10^---------------|
|------------------------------------------12p10------12p10-12-(12)-|
|-------------------------------------------------------------------|

|-----15-15-15-------------15-15------------------------------------------|
|-15^----------r15p13--15^-------r15--13-12---------12/15-13-12-13--------|
|------------------------------------------------13-----------------14----|
|---------------------------------------------14-----------------------15-|
|-------------------------------------------------------------------------|
|-------------------------------------------------------------------------|

|-13-----------------------------5----------------------------------------------|
|----13--15^--15~~~--r15p13--8^-----8-5--------x-x--8---------------5^r^(5)r--5-|
|----------------------------------------r7p5--x-x--7^--(7)-----r7--------------|
|-------------------------------------------------------------------------------|
|-------------------------------------------------------------------------------|
|-------------------------------------------------------------------------------|

Verse:
trem. bar
Feedback---------------------------------------| Harm
3.5 8va
|---------------------------------|---------------------------------|
|---------5-b-6---------r-5-b-6---|-------r-5-----------5-----------|
|-(7)-----------------------------|---------------------------------|
|---------------------------------|---------------------------------|
|---------------------------------|---------------------------------|
|---------------------------------|---------------------------------|
and please remem-ber that I never lied

Chorus 3: Lead Part

Double regular chorus with power chords, or 5 (ie: F5, G5, A5, etc)

F G Am F G
|--12~~~--12--12--12--12-------|-------------------|------------|
|-------------------------13---|--15-p-13----------|------------|
|------------------------------|-----------14~~~~--|------------|
|------------------------------|-------------------|------------|
|------------------------------|-------------------|------------|
|------------------------------|-------------------|------------|

Am F G
|--15b-------r15--15----------|-------------------|-------------|
|---------------------17--15--|--15--p--13~~~~~~--|--15--13--15-|
|-----------------------------|-------------------|-------------|
|-----------------------------|-------------------|-------------|
|-----------------------------|-------------------|-------------|
|-----------------------------|-------------------|-------------|

C G/B Am G F
|------------------------------|------------------------------|
|--15----15-----12-----12------|------------------------------|
|------------------------------|--14~~~~~~--------------------|
|------------------------------|------------------------------|
|------------------------------|------------------------------|
|------------------------------|------------------------------|


Outro Chorus: Distorted Guitar

F5 G5
And don't you cry...

F5 G5
Don't you ever cry...

F5 G5 *** (E5) (F5)
Don't you cry tonight... baby maybe someday...

F5 G5
Don't you cry...

F5 G5
Don't you ever cry...

F5 G5 C5
Don't you cry... TONIGHT... ****


*** Fill in with Rhy. Fill 3

Rhy. Fill 3 End Rhy. Fill 3
E5 F5
E|--------------------------|--------------------------|
B|--------------------------|--------------------------|
G|--------------------------|--------------------------|
D|--2--2--2--2--2--2--2--2--|--3--3--3--3--3--3--3--3--|
A|--2--2--2--2--2--2--2--2--|--3--3--3--3--3--3--3--3--|
E|--0--0--0--0--0--0--0--0--|--1--1--1--1--1--1--1--1--|
baby... maybe... someday...

**** Play Riff 1

Riff 1
E|-12--12--------------------------12--12----------13--------------|
B|---------13------13------13--------------13----------------sl----|
G|---------------------------------------------------------12-/14--|
D|-----------------------------------------------------------------|
A|-----------------------------------------------------------------|
E|-----------------------------------------------------------------|

E|-13--------------12----------10----------8-----------------------|
B|-----------------------------------------------------------------|
G|---------12--------------10----------9---------5h7-------5-------|
D|-----------------------------------------------------------------|
A|-----------------------------------------------------------------|
E|-----------------------------------------------------------------|

E|-----------------------------------------------------------------|
B|-----------------------------------------------------------------|
G|---------5-------------------------------------------------------|
D|-5-h-7-----------------------------------------------------------|
A|---------------6h7-----------------------------------------------|
E|-----------------------------------------------------------------| End Riff 1

Encontrou algum erro na letra? Por favor, envie uma correção >

Compartilhe
esta música

Ouça estações relacionadas a Guns N' Roses no Vagalume.FM

ÚLTIMAS

MIX DE MÚSICAS

ARTISTAS RELACIONADOS