Página inicial > Rock > G > Green Day > Nice Guys Finish Last (tablatura)

Nice Guys Finish Last (tablatura)

Green Day


| Tuning: Standard (low to high: e a d g b e)
| Tempo: Fast
------------------------------------------------------ ---- --- -- -

INTRO
e:-----------------:-----------------:-----------------:-----------------:
b:-----------------:-----------------:-----------------:-----------------:
g:-----------------:-----------------:-----------------:-----------------:
d:-----------------:-----------------:-----------------:-------------7---:
a:-x-x-x-x-x-x-x-x-:-x-x-x-x-x-x-x-x-:-x-x-x-x-x-x-x-x-:-x-x-x-x-x-x-7---:
e:-x-x-x-x-x-x-x-x-:-x-x-x-x-x-x-x-x-:-x-x-x-x-x-x-x-x-:-x-x-x-x-x-x-5---:

e:-----------------:-----------------:-----------------:-----------------:
b:-----------------:-----------------:-----------------:-----------------:
g:*9---9-9-9-9-----:-----------------:-9---9-9-9-9-----:----------------*:
d:*9---9-9-9-9-7---:-9---9-9-9-9-7---:-9---9-9-9-9-7---:-9---9-9-9-9-7--*:
a:-7---7-7-7-7-7---:-9---9-9-9-9-7---:-7---7-7-7-7-7---:-9---9-9-9-9-7---:
e:-------------5---:-7---7-7-7-7-5---:-------------5---:-7---7-7-7-7-5---:

e:-----------------:-----------------:-----------------:-----------------:
b:-----------------:-----------------:-----------------:-----------------:
g:-----------------:-----------------:-9--------------:-----------------:
d:-2---------------:-------------7---:-9--------------:-----------------:
a:-2---------------:-------------7---:-7--------------:-----------------:
e:-0---------------:-------------5---:-----------------:-----------------:

VERSE
e:-----------------:-----------------:-----------------:-----------------:
b:-----------------:-----------------:-----------------:-----------------:
g:-9---------------:-----------------:-----------------:-----------------:
d:-9---9-9-9-9-9-9-:-9-9-9-9-9-9-9-9-:-9-9-9-9-9-9-9-9-:-9-9-9-9-9-9-9-9-:
a:-7---7-7-7-7-7-7-:-7-7-7-7-7-7-7-7-:-7-7-7-7-7-7-7-7-:-7-7-7-7-7-7-7-7-:
e:-----------------:-----------------:-----------------:-----------------:
PM---------------------------------------------------------------|

e:-----------------:-----------------:-----------------:-----------------:
b:-----------------:-----------------:-----------------:-----------------:
g:-----------------:-----------------:-9---9---9-9-9-9-:---9-9-9-9-9-9-9-:
d:-----------------:-----------------:-9---9---9-9-9-9-:---9-9-9-9-9-9-9-:
a:-9-9-9-9-9-9-9-9-:-9-9-9-9-9-9-9-9-:-7---7---7-7-7-7-:---7-7-7-7-7-7-7-:
e:-7-7-7-7-7-7-7-7-:-7-7-7-7-7-7-7-7-:-----------------:-----------------:
PM-------------------------------|

PRE-CHORUS 3x
e:-----------------:-----------------:-----------------:-----------------:
b:-----------------:-----------------:-----------------:-----------------:
g:*----------------:-----------------:-9---9---9-9-9-9-:---9-9-9-9-9-9-9*:
d:*7---7---7-7-7-7-:---7-7-7-7-7-7-7-:-9---9---9-9-9-9-:---9-9-9-9-9-9-9*:
a:-7---7---7-7-7-7-:---7-7-7-7-7-7-7-:-7---7---7-7-7-7-:---7-7-7-7-7-7-7-:
e:-5---5---5-5-5-5-:---5-5-5-5-5-5-5-:-----------------:-----------------:

e:-----------------:-----------------:-----------------:-----------------:
b:-----------------:-----------------:-----------------:-----------------:
g:-----------------:-----------------:-4---4---4-4-4-4-:---4-4-4-4-4-4-4-:
d:-4---4---4-4-4-4-:---4-4-4-4-4-4-4-:-4---4---4-4-4-4-:---4-4-4-4-4-4-4-:
a:-4---4---4-4-4-4-:---4-4-4-4-4-4-4-:-2---2---2-2-2-2-:---2-2-2-2-2-2-2-:
e:-2---2---2-2-2-2-:---2-2-2-2-2-2-2-:-----------------:-----------------:

CHORUS 3x
e:-----------------:-----------------:-----------------:-----------------:
b:-----------------:-----------------:-----------------:-----------------:
g:*--------------2-:---2-2-2-2-2-2-2*:-4-4-4-4-4-4-4-4-:-4-4-4-4-4-4-4-4-:
d:*2---2---2-2-2-2-:---2-2-2-2-2-2-2*:-4-4-4-4-4-4-4-4-:-4-4-4-4-4-4-4-4-:
a:-2---2---2-2-2-0-:---0-0-0-0-0-0-0-:-2-2-2-2-2-2-2-2-:-2-2-2-2-2-2-2-2-:
e:-0---0---0-0-0---:-----------------:-----------------:-----------------:

BRIDGE
e:-----------------:-----------------:-----------------:-----------------:
b:-----------------:-----------------:-----------------:-----------------:
g:-9---9-9-9-9-----:-----------------:-9---9-9-9-9-----:-----------------:
d:-9---9-9-9-9-7---:-9---9-9-9-9-7---:-9---9-9-9-9-7---:-9---9-9-9-9-7---:
a:-7---7-7-7-7-7---:-9---9-9-9-9-7---:-7---7-7-7-7-7---:-9---9-9-9-9-7---:
e:-------------5---:-7---7-7-7-7-5---:-------------5---:-7---7-7-7-7-5---:

e:-----------------:-----------------:-----------------:-----------------:
b:-----------------:-----------------:-----------------:-----------------:
g:-9---9-9-9-9-----:-----------------:-----------------:-----------------:
d:-9---9-9-9-9-7---:-9---9-9-9-9-7---:-7---7-7-7-7-6---:-4---4-4-4-4-7---:
a:-7---7-7-7-7-7---:-9---9-9-9-9-7---:-7---7-7-7-7-6---:-4---4-4-4-4-7---:
e:-------------5---:-7---7-7-7-7-5---:-5---5-5-5-5-4---:-2---2-2-2-2-5---:

e:-----------------:-----------------:
b:-----------------:-----------------:
g:-----------------:-----------------:
d:-9---9-9-9-9-9-9-:-9-9-9-9-9-9-9-9-:
a:-9---9-9-9-9-9-9-:-9-9-9-9-9-9-9-9-:
e:-7---7-7-7-7-7-7-:-7-7-7-7-7-7-7-7-:

Intro Riff

Verse 1 w/ VERSE
Nice guys finish last.
You're running out of gas.
Your sympathy will get you left behind.

Sometimes your at your best, when you look the worst.
Do you feel washed up, like piss going down the drain.

Pre-Chorus w/ PRE-CHORUS
Pressure cooker pick my brain and tell me I'm insane.
I'm so fucking happy I could cry.
Every joke can have its truth and now the joke's on you.
I never know you were such a funny guy.

Chorus w/ CHORUS
Oh nice guys finish last, when you are the outcast.
Donn't pat yourself on the back, you might break your spine.

Verse 2 w/ VERSE
Living on command.
You're shaking lots of hands.
Kissing up and bleeding all your trust, taking what you need.
Bit the hand that feeds.
You kill your memory.

Pre-Chorus
Chorus X2
INTERLUDE
Chorus X2
VERSE (3rd bar only)

Compositor: Nath_bourdon

Encontrou algum erro na letra? Por favor, envie uma correção >

Compartilhe
esta música

Ouça estações relacionadas a Green Day no Vagalume.FM

ÚLTIMAS

MIX DE MÚSICAS

ARTISTAS RELACIONADOS