Página inicial > Punk Rock > G > Good Charlotte > Lifestyles Of The Rich And Famous (tablatura)

Lifestyles Of The Rich And Famous (tablatura)

Good Charlotte


verse

E-------------------------------------
B-------------------------------------
G-----6-6----8-8-----------6-6-------- 2x
D-----6-6----8-8----4-4----6-6--------
A-----4-4----6-6----4-4----4-4--------
E-------------------2-2---------------

prechorus

E--------------------------------------------
B--------------------------------------------
G-----33333333------------66666666-----------
D-----33333333--44444444--66666666--66666666-
A-----11111111--44444444--44444444--66666666-
E---------------22222222------------44444444-

E--------------------------------------------------------
B--------------------------------------------------------
G-----33333333------------66666666-----------------------
D-----33333333--44444444--66666666--66666666--44444444---
A-----11111111--44444444--44444444--66666666--44444444---
E---------------22222222------------44444444--22222222---

chorus

E---------------------------------------------
B---------------------------------------------
G----66666666--88888888------------66666666--- repeat 2x
D----66666666--88888888--44444444--66666666---
A----44444444--66666666--44444444--44444444---
E------------------------22222222-------------

heavy chorus

E---------------------------------------------
B---------------------------------------------
G----66666666--88888888------------66666666--- repeat 2x
D----66666666--88888888--44444444--66666666---
A----44444444--66666666--44444444--44444444---
E------------------------22222222-------------

ending

E-------------------------------------------
B-------------------------------------------
G-------------66666666---------------------- 3x
D---44444444--66666666----------------------
A---44444444--44444444----------------------
E---22222222--------------------------------

verse
pre-chorus
chorus

verse
pre-chorus
chorus

heavy chorus
chorus (1x)
end

Encontrou algum erro na letra? Por favor, envie uma correção >

Compartilhe
esta música

Ouça estações relacionadas a Good Charlotte no Vagalume.FM

ÚLTIMAS

MIX DE MÚSICAS

ARTISTAS RELACIONADOS