Página inicial > Punk Rock > G > Good Charlotte > Hold On (tablatura)

Hold On (tablatura)

Good Charlotte


Intro

Gtr 1
E------------------------------------------
B--------3-----------------3---------------
G----5-----5---5-------5-----5-----5-------
D------5-----5-----------5------5----------
A--3-----------------3---------------------
E------------------------------------------

E------------------------------------------
B--------3---6-5-3-------------------------
G----5-----5-------5---5-------------------
D------5-------------5---------------------
A--3---------------------------------------
E------------------------------------------

Gtr 2
E------------------------------------------
B---4/5-6--6/8-6--4/5-6--8/10/8-------------
G------------------------------------------
D------------------------------------------
A------------------------------------------
E------------------------------------------

This world, this world is cold |
But you don't, you don't have to go |
You're feeling sad you're feeling lonely | Intro
And no one seems to care |
Your mother's gone and your father hits you |
This pain you cannot bare |


G# F# C#(otra guitarra faz riff1) |
But we all bleed the same way as you do | Os acordes são tocados apenas uma vez
G# F# F#(bate 12x com palm mute) |
And we all have the same things to go thru |

Riff1
E------------------------------------------
B--5--3--5-6-5-3---------------------------
G----------------5-------------------------
D------------------------------------------
A------------------------------------------
E------------------------------------------

C# G# A# F#
Hold on...if you feel like letting go
C# G# A# F F#(eses dois ultimos bate soh uma vez)
Hold on...it gets better than you know

Your days you say they're way too long |
And your nights you can't sleep at all (hold on) |
And you're not sure what you're waiting for | Intro
But you don't want to know more |
And you're not sure what you're waiting for but you
don't want to know more |


G# F# C#(otra guitarra faz riff1) |
But we all bleed the same way as you do | Os acordes são tocados apenas uma vez
G# F# F#(bate 12x com palm mute) |
And we all have the same things to go thru |


C# G# A# F#
Hold on...if you feel like letting go
C# G# A# F#
Hold on...it gets better than you know

C# G#
Don't stop looking you're one step closer
A# F# C# G# A# F F# A# F F#
(Aqui tem uma quebra de ritmo a partir do A#, mas eh bem facil)
Don't stop searching it's not over...ho -ld on

Pós Refrao:(2x)
E------------------------------------------------
B------------------------------------------------
Depois fica fazendo F ateh comecar de novo(bate umas 16x)
G--5-5v-5v-5v-5v-5v-5v-5v-6v-6v-6v-6v-6v-6v-6v-6v
D--x-x--x--x--x--x--x--x--x--x--x--x--x--x--x--x-
A--4-4--4--4--4--4--4--4--4--4--4--4--4--4--4--4-
E------------------------------------------------

Depois guitarra 2 faz no comeco de cada frase abaixo:
E------8------8------8------8--------------
B----9------9------9------9----------------
G--6------6------6------6------------------
D------------------------------------------
A------------------------------------------
E------------------------------------------

F
What are you looking for?
F
What are you waiting for?
Pós Refrao
Do you know what you're doing to me?
Pós refrao, mas o fim eh assim: F(8x) e F#(16x)
Go ahead...what are you waiting for?


C# G# A# F#
Hold on...if you feel like letting go
C# G# A# F#
Hold on...it gets better than you know
C# G#
Don't stop looking you're one step closer
A# F#(bate e abafa o som)
Don't stop searching it's not over...
C# G# A# F#
Hold on...if you feel like letting go
C# G# A# F# C# G# A# F F# A# F F#
Hold on...it gets better than you know...ho -ld on

Pra acaba, guitarra 1 dexa soando e guitarra 2 faz:
E------8------8------8------8--------------
B----9------9------9------9-9--------------
G--6------6------6------6---6--------------
D------------------------------------------
A------------------------------------------
E------------------------------------------


(por Nath_bourdon)

Encontrou algum erro na letra? Por favor, envie uma correção >

Compartilhe
esta música

Ouça estações relacionadas a Good Charlotte no Vagalume.FM

ÚLTIMAS

MIX DE MÚSICAS

ARTISTAS RELACIONADOS