Página inicial > Rock > E > Evanescence > My Immortal (Tablatura)

My Immortal (Tablatura)

Evanescence


Intro and Verse riff:

E:|--------------------------------------|
B:|----------2---------2-------2---------|
G:|------2-------2-----1---1-------1-----|
D:|----2---2---2---2---2-2---2---2---2---|
A:|--0-----------------------------------|
E:|--------------------------------------|

E:|--------------------------------------|
B:|--------------2-----2-------2---------|
G:|------2---4---------1---1-------1-----|
D:|----2---2---2---2---2-2---2---2---2---|
A:|--0-----------------------------------|
E:|--------------------------------------|

i'm so tired of being here
suppressed by all of my childish fears
and if you have to leave
i wish that you would just leave
because your presence still lingers here
and it won't leave me alone


Pre-Chorus riff:

E:|--2-------------------------|
B:|--2-------------------------|
G:|--2-------6---6--------x3---|
D:|--4---4---6-6---6-----------|
A:|--4-4-----4-------4---------|
E:|--2-------------------------|

E:|--0-------------------------|
B:|--0-------------------------|
G:|--1---strum-----------------|
D:|--2-------------------------|
A:|--2-------------------------|
E:|--0-------------------------|

these wounds won't seem to heal
this pain is just too real
there's just too much that time cannot erase


Chorus:

F#m D E C#m
when you cried i'd wipe away all of your tears
F#m D E C#m
when you'd scream i'd fight away all of your fears
F#m D E C#m
and i've held your hand through all of these years
F#m D E
but you still have..... all of me (...back to verse riff)


Verse: (as above)

you used to captivate me
by your resonating light
but now i'm bound by the life you left behind
your face it haunts my once pleasant dreams
your voice it chased away all the sanity in me


Pre-Chorus: (as above)

these wounds won't seem to heal
this pain is just too real
there's just too much that time cannot erase


Chorus: (as above)

when you cried i'd wipe away all of your tears
when you'd scream i'd fight away all of your fears
and i've held your hand through all of these years
but you still have all of me


Bridge:

D F#m E D
i've tried so hard to tell myself that you're gone
D E
and though you're still with me
C#m Bm F#m D E C#m F#m D E C#m
i've been alone all along


Chorus: (as above)

when you cried i'd wipe away all of your tears
when you'd scream i'd fight away all of your fears
and i've held your hand through all of these years
but you still have all of....

(back to verse riff to finish)

me......
me......
me......
me......

Encontrou algum erro na letra? Por favor, envie uma correção >

Compartilhe
esta música

Ouça estações relacionadas a Evanescence no Vagalume.FM

ÚLTIMAS

MIX DE MÚSICAS

ARTISTAS RELACIONADOS