Página inicial > Heavy Metal > D > Dragonforce > Starfire (tablatura)

Starfire (tablatura)

Dragonforce


Tom: C

Gtr I (E A D G B E) - 'Untitled'


Q=150
4/4
Gtr I
~~~~~ ~~ ~~ ~~

E E E E E Q E E E Q Q S Q E E S S E E E Q E E E Q E E E Q
|----------------------------------------------------------------------------------------------------------------|
|----------17-19-19b20---15b17==15r12-15b17r=15b17r==15-15--15-13-12h13p12---------------------------------------|
|-------16-----------------------------------------------------------------14-12-14b16==14r14-12-14--14-12-11h12-|
|----17----------------------------------------------------------------------------------------------------------|
|-19-------------------------------------------------------------------------------------------------------------|
|----------------------------------------------------------------------------------------------------------------|



~~ ~~ ~~

E E E S E H Q E E E Q E S E E S E E E E E E E E E E E E E E Q
|------------------17b19--17r17-15-17--17p15s14-14h15p14----14-------------------------------------------|
|--------------------------------------------------------15----15----15----------------------------------|
|-12-11S9h10p9----------------------------------------------------16----16-14s12-12-14-14b16-14r12-14----|
|--------------\9----------------------------------------------------------------------------------------|
|--------------------------------------------------------------------------------------------------------|
|--------------------------------------------------------------------------------------------------------|



~~

E E E S E E E E E E S E E E E E E Q T T T T T T T T T T T T T T
|----------------------------------------------------------------------------------------------------|
|----------------------------12h13p12----12--------------------------------12-13-15-13-12------------|
|-------11h12p11----11-12-14----------14----14-12S11h12-----------11-12-14----------------14-12-11---|
|-12-14----------14--------------------------------------10-12-14------------------------------------|
|----------------------------------------------------------------------------------------------------|
|----------------------------------------------------------------------------------------------------|




T T T T T T T T T T T T T T T S T T T T T T T T T T T T T T T T T T
|-------------------12-14-15-14-12--------------------------12-14-15----------14-15-17----------15-17-19---|
|----------12-13-15----------------15-13-12--------12-13-15----------13-15-17----------15-17-19------------|
|-11-12-14----------------------------------14-12----------------------------------------------------------|
|----------------------------------------------------------------------------------------------------------|
|----------------------------------------------------------------------------------------------------------|
|----------------------------------------------------------------------------------------------------------|




T T T T T T T T T T T T H
|----------17-19-20----------19-20-22-22b24----|
|-17-19-20----------19-20-22-------------------|
|----------------------------------------------|
|----------------------------------------------|
|----------------------------------------------|
|----------------------------------------------|

Letra enviada por Lukas

Encontrou algum erro na letra? Por favor, envie uma correção >

Compartilhe
esta música

Ouça estações relacionadas a Dragonforce no Vagalume.FM

ÚLTIMAS

MIX DE MÚSICAS

ARTISTAS RELACIONADOS