Página inicial > Sertanejo > D > Daniel > Reino Encantado

Reino Encantado

Daniel


Intro

E|--------3-----3--7----12-10--|------3---3-10--8--7------
B|-----0--3---3-------8--------|-0-3----3-----------------
G|-----------------------------|--------------------------
D|-----------------------------|--------------------------
A|-----------------------------|--------------------------
E|-----------------------------|--------------------------

E|--------3---3--7---7--8--8-7----------------------------
B|--0--3----3-----10-----------10-8--7--10--8--7----------
G|-----------------------------------------------9--7-----
D|--------------------------------------------------------
A|--------------------------------------------------------
E|--------------------------------------------------------

E|-----------------------------|--------------------------
B|-7---------------------------|--------------------------
G|---9--7------7---------------|--------------------------
D|-------10-9----10--9--7------|--------------------------
A|------------------------10---|2ªparte---2--3--5-3--2--0-
E|-----------------------------|-----------------3--------

G
Eu nasci num recanto feliz
D7
Bem distante da povoação
Foi ali que eu vivi muitos anos
C D7 G
Com papai mamãe e os irmãos
G
Nossa casa era uma casa grande
D7
Na encosta de um espigão
Um cercado pra guardar bezerro
G
E ao lado um grande mangueirão
2ª parte da Introdução
G
No quintal tinha um forno de lenha
D7
E um pomar onde as aves cantava
Um coberto pra guardar o pilão
C D7 G
E as traias que papai usava
Introdução
G
De manhã eu ia no paiol
D7
Um espiga de milho eu pegava
Debuiava e jogava no chão
G
Num instante as galinhas juntava
2ª parte da Introdução
G
Nosso carro de boi conservado
D7
Quatro juntas de bois de primeira
Quatro cangas, dezesseis cansis
C D7 G
Encostados no pé da figueira
G
Todo sabado eu ia na vila
D7
Fazer compras para semana inteira
O papai ia gritando com os bois
G
Eu na frente ia abrindo as porteiras.
2ª parte da Introdução
G
Nosso sítio que era pequeno
D7
Pelas grandes fazendas cercado
Precisamos vender a propriedade
C D7 G
Para um grande criador de gado
G
E partimos pra a cidade grande
D7
A saudade partiu ao meu lado
A lavoura virou colonião
G
E acabou-se meu reino encantado
2ª parte da Introdução
G
Hoje ali só existe tres coisas
D7
Que o tempo ainda não deu fim
A tapera velha desabada
C D7 G
E a figueira acenando pra mim
G
E por ultimo marcou saudade
D7
De um tempo bom que já se foi
Esquecido em baixo da figueira
G
Nosso velho carro de boi. .


Encontrou algum erro na letra? Por favor, envie uma correção >

Compartilhe
esta música

Ouça estações relacionadas a Daniel no Vagalume.FM

ÚLTIMAS

MIX DE MÚSICAS

ARTISTAS RELACIONADOS