CPM 22
Página inicial > Hardcore > C > CPM 22 > Tarde de Outubro (Tablatura)

Tarde de Outubro (Tablatura)

CPM 22


Por:Paulo Yamashiro (paulcornholio@hotmail.com)
Rafa Lopes (tabscharliebrown@ieg.com.br)

Intro
E|-------------------------------------------------------------------|
B|-------------------------------------------------------------------|
G|-4-4-4-4-4-4-4-4-4-4-4-4-4-4-4-4-----------------------------------|
D|-4-4-4-4-4-4-4-4-4-4-4-4-4-4-4-4-6-6-6-6-6-6-6-4-4-4-4-4-4-4-4-4-4-|
A|-2-2-2-2-2-2-2-2-2-0-0-0-0-0-0-0-6-6-6-6-6-6-6-4-4-4-4-4-4-4-4-4-4-|
E|---------------------------------4-4-4-4-4-4-4-2-2-2-2-2-2-2-2-2-2-|
|Guitarra 1
E|-------------------------------------------------------------------|
B|-------------------------------------------------------------------|
G|-4---4---4---4---4---4---4---4---4---4---4---4---4---4---4---4---4-|
D|---4---4---4---4---4---4---4---4---4---4---4---4---4---4---4---4---|
A|-------------------------------------------------------------------|
E|-------------------------------------------------------------------|
Guitarra 2 (entra na segunda vez, e é com palm mute)

Verso
E|-------------------------------------------------------------------|
B|-------------------------------------------------------------------|
G|-4-4-4-4-4-4-4-4-4-4-4-4-4-4-4-4-----------------------------------|
D|-4-4-4-4-4-4-4-4-4-4-4-4-4-4-4-4-6-6-6-6-6-6-6-4-4-4-4-4-4-4-4-4-4-|
A|-2-2-2-2-2-2-2-2-2-0-0-0-0-0-0-0-6-6-6-6-6-6-6-4-4-4-4-4-4-4-4-4-4-|
E|---------------------------------4-4-4-4-4-4-4-2-2-2-2-2-2-2-2-2-2-|

Riff (durante verso)
E|--------------------------------------|
B|--------------------------------------|
G|--4/6/4---8-8-8-8-8-11-11-11-11-11-11-|
D|--------------------------------------|
A|--2/4/2---6-6-6-6-6-9--9--9--9--9--9--|
E|--------------------------------------|
<5vezes>

Refrão (2 vezes)
E|-------------------------------------------------------------------------|
B|-------------------------------------------------------------------------|
G|-4-4-4-4-4-4-4-4---------------------4-4-4-4-4-4-4-4---------------------|
D|-4-4-4-4-4-4-4-4-6-6-6-6-6-7-7-7-7-7-4-4-4-4-4-4-4-4-6-6-6-6-6-7-7-7-7-7-|
A|-2-2-2-2-2-2-2-2-6-6-6-6-6-7-7-7-7-7-2-2-2-2-2-2-2-2-6-6-6-6-6-7-7-7-7-7-|
E|-----------------4-4-4-4-4-5-5-5-5-5-----------------4-4-4-4-4-5-5-5-5-5-|
|Guitarra 1
|
E|-------------------------------------------------------------------------|
B|-12--12--12--12--12--12--12--12--12--12--12--12-12-12--------------------|
G|-------------------------------------------------------11-11-11-14-14-14-|
D|-9---9---9---9---9---9---9---9---9---9---9---9--9--9---------------------|
A|-------------------------------------------------------9--9--9--12-12-12-|
E|-------------------------------------------------------------------------|
Guitarra 2

Riff após refrão (2 vezes, com a base do verso)
E|------------------------------------------------------------------|
B|------------------------------------------------------------------|
G|-4-4-4-4-4-4-8-8-8-8-8-8-8-8/9-8/9-8/9-11-11-11-11-11-9-8-9-8-6-4-|
D|------------------------------------------------------------------|
A|-2-2-2-2-2-2-6-6-6-6-6-6-6-6/7-6/7-6/7-9--9--9--9--9--7-6-7-6-4-2-|
E|------------------------------------------------------------------|

Final
E|-----------------------------------------------------------------|
B|-----------------------------------------------------------------|
G|-------------------------------------------------------------4-4-|
D|-6-6-6-6-6-7-7-7-7-7-6-6-6-6-6-7-7-7-7-7-6-6-6-6-6-7-7-7-7-7-4-4-|
A|-6-6-6-6-6-7-7-7-7-7-6-6-6-6-6-7-7-7-7-7-6-6-6-6-6-7-7-7-7-7-2-2-|
E|-4-4-4-4-4-5-5-5-5-5-4-4-4-4-4-5-5-5-5-5-4-4-4-4-4-5-5-5-5-5-----|


B A
Peguei minhas coisas, fui embora
G#m
Não queria mais voltar
F#
Eu nunca quis presenciar o fim
B A
Há dias que os dias passam devagar
G#m F#
Tudo se foi Nada restou pra mim
B A
Por isso estou aqui agora
G#m F#
Vou embora sem pensar No que ficou pra começar ali
B A
Mas eu só tinha algumas horas pra voltar
G#m F#
Tudo se foi Nada restou pra mim
B G#m A B
São coisas que somente o tempo irá curar
F# A B
Se foi para nunca mais te ver chorar
G#m A B
São coisas que somente o tempo irá curar
F# A
Se foi, tudo vai passar

Solo:B A G#m F#

G#m A G#m A B
Tudo vai passar Tudo vai passar

Encontrou algum erro na letra? Por favor, envie uma correção >

Compartilhe
esta música

Ouça estações relacionadas a CPM 22 no Vagalume.FM

ÚLTIMAS

ESTAÇÕES

ARTISTAS RELACIONADOS