Página inicial > Pop/Rock > C > Charlie Brown Jr > Só Por Uma Noite (Tablatura Para Baixo)

Só Por Uma Noite (Tablatura Para Baixo)

Charlie Brown Jr


Intro:
G|--------------------------|
D|--------------------------| - 4 vezes
A|--3/4-4-4------------2-2--|
E|----------0-0-0--4-4------|

G|-------------------------------|
D|------------------1-2-4-2-1----| - ateh "tudo errado"
A|----------------2-----------2--|
E|--4-4--5-5--0-0----------------|

"Tudo errado"
G|----------------------|
D|----------------------|
A|----------------------|
E|--4-4--5-5--0-0--0-0--|

Refrão:
G|-------------------------------|
D|------------------1-2-4-2-1----|
A|----------------2-----------2--|
E|--4-4--5-5--0-0----------------|
(continued)
G|----------------------|
D|----------------------|
A|----------------------|
E|--4-4--5-5--0-0--0-0--|

"Mas só de ouvir..."
G|--------------------------------------|
D|--------------------------------------| - 2 vezes
A|--3/4------3/4----------2-2------2-2--|
E|------0-0------0-0--4-4------4-4------|

G|-------------------------------|
D|------------------1-2-4-2-1----|
A|----------------2-----------2--|
E|--4-4--5-5--0-0----------------|

G|--------------------------|
D|--------------------------|
A|----------------3/4--3/4--|
E|--4-4--5-5--0-0-----------|

G|--------------------------|
D|--------------------------| - 4 vezes
A|--3/4-4-4------------2-2--|
E|----------0-0-0--4-4------|

G|-------------------------------|
D|------------------1-2-4-2-1----| - ateh "tudo errado"
A|----------------2-----------2--|
E|--4-4--5-5--0-0----------------|

"Tudo errado"
G|----------------------|
D|----------------------|
A|----------------------|
E|--4-4--5-5--0-0--0-0--|

Refrão:
G|-------------------------------|
D|------------------1-2-4-2-1----|
A|----------------2-----------2--|
E|--4-4--5-5--0-0----------------|
(continued)
G|----------------------|
D|----------------------|
A|----------------------|
E|--4-4--5-5--0-0--0-0--|

"Mas só de ouvir..."
G|--------------------------------------|
D|--------------------------------------| - 2 vezes
A|--3/4------3/4----------2-2------2-2--|
E|------0-0------0-0--4-4------4-4------|

G|--------------------------|
D|--------------------------| - 4 vezes
A|--3/4-4-4------------2-2--|
E|----------0-0-0--4-4------|


Controbuição: Nilton Santos

Encontrou algum erro na letra? Por favor, envie uma correção >

Compartilhe
esta música

Ouça estações relacionadas a Charlie Brown Jr no Vagalume.FM

ÚLTIMAS

MIX DE MÚSICAS

ARTISTAS RELACIONADOS