Muito mais que só letras de músicas

  • Vagalume
  • A-Z
  • Estilos
  • Top 100
  • Playlists
  • Rádio
  • Hot Spots
  • Notícias
  • Play
    PLAY

    e||-----------------------------
    B||-----------------------------
    G||-----------7-6-4-4-6-7-7-9-9-
    D||4--4-6-7-7-7-6-4-4-6-7-7-9-9-
    A||4--4-6-7-7-5-4-2-2-4-5-5-7-7-
    E||2--2-4-5-5-------------------



    Solo da 2ª Guitarra

    B||7/10-7-5-3-5-7-12-12-14-14-7-
    |_____3x______|

    Refrão:

    Base (F# D)

    e||--------------
    B||--------------
    G||7-6-4-6-4-2---
    D||7-6-4-6-4-2-4-
    A||5-4-2-4-2-0-4-
    E||------------2-


    Final:

    e||--------------
    B||--------------
    G||--------9-4-4- (Solo)
    D||4-4-----9-4-4-
    A||4-4-----7-2-2-
    E||2-2-7-9-------

    Encontrou algum erro na letra? Por favor, envie uma correção »

    Comente
    user 300 caracteres restantes. Enviar

    Todas as letras de Charlie Brown Jr

    Publicidade
    Notícias
    Mais notícias »
    Hot Spot
    Top Músicas do Vagalume
    Top 100 »

    As informações deste site são postadas integralmente pelos usuários. É importante dizer que é possível que os dados estejam desatualizados ou incorretos, sendo assim, o Vagalume exime-se de qualquer responsabilidade sobre as informações publicadas.Caso haja interesse em remover ou alterar alguma informação, entre em contato conosco.


    É permitida somente a visualização no site das letras de músicas encontradas aqui, vedada sua reprodução através de quaisquer outros meios (Lei 9610/98).Todas as letras de músicas são propriedade dos seus respectivos autores e divulgadas somente para fins educacionais.All lyrics are property and copyright of their owners. All lyrics are provided for educational purposes only.