Página inicial > Pop/Rock > C > Charlie Brown Jr > Resolva O Meu Problema Aí (Tablatura)

Resolva O Meu Problema Aí (Tablatura)

Charlie Brown Jr


e||-----------------------------
B||-----------------------------
G||-----------7-6-4-4-6-7-7-9-9-
D||4--4-6-7-7-7-6-4-4-6-7-7-9-9-
A||4--4-6-7-7-5-4-2-2-4-5-5-7-7-
E||2--2-4-5-5-------------------



Solo da 2ª Guitarra

B||7/10-7-5-3-5-7-12-12-14-14-7-
|_____3x______|

Refrão:

Base (F# D)

e||--------------
B||--------------
G||7-6-4-6-4-2---
D||7-6-4-6-4-2-4-
A||5-4-2-4-2-0-4-
E||------------2-


Final:

e||--------------
B||--------------
G||--------9-4-4- (Solo)
D||4-4-----9-4-4-
A||4-4-----7-2-2-
E||2-2-7-9-------

Encontrou algum erro na letra? Por favor, envie uma correção >

Compartilhe
esta música

Ouça estações relacionadas a Charlie Brown Jr no Vagalume.FM

ÚLTIMAS

MIX DE MÚSICAS

ARTISTAS RELACIONADOS