Página inicial > Pop/Rock > C > Charlie Brown Jr > Lugar Ao Sol (Tablatura)

Lugar Ao Sol (Tablatura)

Charlie Brown Jr


Introdução: Harpejo

1ª Parte
e|-------------------------|-------6--------------|
B|---3---------------------|-8-6-----8-6---6-8----|
G|-------3-5---5---3-5-7---|-----7-------7--------|
D|-5---5-----3---3---------|----------------------|
A|-----------------------6-|----------------------|
E|-------------------------|----------------------|

2ª Parte
e|-------------------------|-6~-------------------|
B|---3---------------------|-6~-------------------|
G|-------3-5---5---3-5-7---|-7~-------------------|
D|-5---5-----3---3---------|-8~-------------------|
A|-------------------------|-6~-------------------|
E|-------------------------|----------------------|

Base:

e|-------------------------|--------------------|
B|---3---------------------|--------------------|
G|-------3-5---5---3-5-7---|-777-10-710-710-----|
D|-5---5-----3---3---------|-888--8-8-8-8-8-----|
A|-5---5-----3---3---------|-666--6-6-6-6-6-----|
E|-3---3-----1---1---------|--------------------|

e|-------------------------|
B|-------------------------|
G|-------------------------|
D|-------------------------|
A|-------------------------|
E|-------------------------|



Gm F Eb
Que bom viver, como é bom sonhar e o que ficou pra trás passou e eu não me
Gm F
importei Foi ate melhor
Eb
Tive que pensar em algo novo que fizesse sentido
Gm F
Ainda vejo o mundo com os olhos de criança
Eb
Que só quer brincar e não tanta "responsa"
Gm
Mas a vida cobra sério
F
E realmente não dá pra fugir

Eb
e|-----6-------------------|
B|-----6--8~---------------|
G|-----8----7~-------------|
D|-----8------8~-----------|
A|-----6-------------------|
E|-------------------------|

Refrao (2x)
| Bb Bb7+
|Livre pra poder sorrir (sim)
|Gm Eb
|Livre pra poder buscar
| Bb Bb7+ Eb Ebm
|O meu lugar ao Sol

Refrao (2x)
Bb Bb7+ Gm Eb Bb Bb7+ Eb Ebm
e|-----1~-----------------1~--------66666------|
B|-----1~-----------------1~--------77777------|
G|-333-2~-------------333-2~---8888888888------|
D|-333-3~-55555-88888-333-3~---8888888888------|
A|-111-1~-55555-66666-111-1~---6666666666------|
E|--------33333--------------------------------| 2X



Base:

e|-------------------------|--------------------|
B|---3---------------------|--------------------|
G|-------3-5---5---3-5-7---|-777-10-710-710-----|
D|-5---5-----3---3---------|-888--8-8-8-8-8-----|
A|-5---5-----3---3---------|-666--6-6-6-6-6-----|
E|-3---3-----1---1---------|--------------------|


Gm F
Um dia eu espero te reencontrar
Eb
Numa bem melhor, cada um tem seu caminho
Gm F
Eu sei foi até melhor
Eb
Irmãos do mesmo Cristo, quero e não desisto
Gm
Caro pai como é bom
F Eb
Ter com o que se orgulhar a vida pode passar, não estou sozinho
Gm
Eu sei se eu tiver fé
F Eb
Eu volto até sonhar

Eb
e|-----6----------10~------|
B|-----6--8~------11~------|
G|-----8----7~-----8~------|
D|-----8------8~-----------|
A|-----6-------------------|
E|-------------------------|

Refrao (2x)
| Bb Bb7+
|Livre pra poder sorrir (sim)
|Gm Eb
|Livre pra poder buscar
| Bb Bb7+ Eb Ebm
|O meu lugar ao Sol

Refrao (2x)
Bb Bb7+ Gm Eb Bb Bb7+ Eb Ebm
e|-----1~-----------------1~--------66666------|
B|-----1~-----------------1~--------77777------|
G|-333-2~-------------333-2~---8888888888------|
D|-333-3~-55555-88888-333-3~---8888888888------|
A|-111-1~-55555-66666-111-1~---6666666666------|
E|--------33333--------------------------------| 2X


Base:

e|-------------------------|--------------------|
B|---3---------------------|--------------------|
G|-------3-5---5---3-5-7---|-777-10-710-710-----|
D|-5---5-----3---3---------|-888--8-8-8-8-8-----|
A|-5---5-----3---3---------|-666--6-6-6-6-6-----|
E|-3---3-----1---1---------|--------------------|

Gm F
O amor é assim
Eb
É a paz de Deus em sua casa
Gm F
O amor é assim
Eb
A paz de Deus que nunca acaba
Gm F
O amor é assim
Eb
É a paz de Deus em sua casa

O amor é assim
É a paz de Deus que EM CIMA DESSE FaçA A 2ª Parte da INTRO!
... nunca acaba!!!

1ª guitarra
e|-------------------------------|
B|-------------------------------|
G|--5-5-5-5-5-8-8-8-8-8-8-8------| 3x
D|--5-5-5-5-5-8-8-8-8-8-8-8------| /
A|--3-3-3-0-3-6-6-6-6-6-6-6------| /
E|-------------------------------|/

2ª guitarra ( nas duas 1ªs vezes bem baixinho)
e|-------------------------|
B|-1313-13--8--------------|
G|--x-x--x--x--------------|
D|-1010-10--5--------------|
A|-------------------------|
E|-------------------------| 2x

2ª guitarra (na terceira vez)
e|---------------------------|
B|-13-11-13-13-13-15-13-11-7-|
G|--x--x--x--x--x--x--x--x-x-|
D|-10--8-10-10-10-12-10--8-5-|
A|---------------------------|
E|---------------------------|

e|----3-----------8-6-8-6...2ªguita-----|
B|----3---------------------------------|
G|----3---------------------------------|
D|--5-5---5-4-3--3-3-3-3----------------|
A|--5-5---5-4-3--3-3-3-3----------------|
E|--3-3---3-2-1--1-1-1-1----------------|

BASE: Gm F Eb (guitarra 1)
SOLO (guitarra 2)
e|-10-13-10-13-10-13-10-13-10-13/15-1515151515-131313131313-10-8-6-8-8/10-66----------|
B|-------------------------------------------------------------------------6----------|
G|-------------------------------------------------------------------------710-710-710|
D|-------------------------------------------------------------------------8-8-8-8-8-8|
A|-------------------------------------------------------------------------6-6-6-6-6-6|
E|------------------------------------------------------------------------------------|

Base:

e|-------------------------|--------------------|
B|---3---------------------|--------------------|
G|-------3-5---5---3-5-7---|-777-10-710-710-----|
D|-5---5-----3---3---------|-888--8-8-8-8-8-----|
A|-5---5-----3---3---------|-666--6-6-6-6-6-----|
E|-3---3-----1---1---------|--------------------|

Gm
Nossas vidas, nossos sonhos
F Eb
Têm o mesmo valor
Gm
Nossas vidas, nossos sonhos
F
Têm o mesmo valor...
Eb
...eu vou com você para onde você for
Gm F
Eu descobri que é azul
Eb
a cor da parede da casa de Deus

(2ª Parte da InTrO)

E não há mais ninguém como você e eu!!!

Encontrou algum erro na letra? Por favor, envie uma correção >

Compartilhe
esta música

Ouça estações relacionadas a Charlie Brown Jr no Vagalume.FM

ÚLTIMAS

MIX DE MÚSICAS

ARTISTAS RELACIONADOS