Página inicial > Pop/Rock > C > Charlie Brown Jr > Charlie Brown Jr. (tablatura)

Charlie Brown Jr. (tablatura)

Charlie Brown Jr


as notas mostradas em bi-cordes podem ser tocadas em power cord

E||---------------------------------------||
B||-----------------3/4444-------3/4444---||
G||---------------------------------------||
D||-8-----78-----68-----------78----------||
A||-6--6—-46--6--46--------6—-46--------6-||
E||----4------4------------4------------4-||


E||---------------------------------||
B||---------------------------------||
G||---------------------------------|| parte 2
D||-8—---45--------8—---45--------||
A||-6-4/6---4/6-6-4-6-4/6---4/6-6-4-||
E||-------------4-2-------------4-2-||

E||--------------------------||
B||--------------------------||
G||------78------------------||
D||8-----46----------8-------|| repita parte 2
A||6--6------6--4-4-46-------||
E||---4------4---------------||

Deixe estar que eu.....
E||----------------------------||
B||----------------------------||
G||----------------------------||
D||8---------------------------|| siga as notas com a batida necessária
A||6--6-4----------------------||
E||---4-2----------------------||

LETRA
Muita gente riu de mim
Quando eu disse que podia fazer o que quisesse da minha vida
Foram muitos anos de vivência
Muitos baldes de água fria na cabeça
Muitos goles a mais, alguns passos pra trás
Só flagrando a cena
Eu aprendi bastante para poder sorrir
Pois ainda estou aqui. tentando conquistar o meu espaço
Com muito pouca condição
Mas a cabeça não abaixo
Sou Charlie Brown, meu irmão
(TCHAROLLADRÃO)

E o que tenho de bom é do melhor
Sou o que sou, sei porque sou
Aonde estou e o que quero
Sei com quem devo estar
E o que da vida espero
Tribo que não tem medo do perigo skatista,
vagabundo, batizado, favelado
muitas vezes culpado sem ser julgado
Passei por isso, da vida sei o que espero o que

Deixe estar, que eu...que eu sigo em frente
Deixe estar, que eu...que eu sigo em frente

Quer falar, já falou, vou falar, já falei
Quer falar com o pai véio, falar agora
Pai véio quer ir embora!

Encontrou algum erro na letra? Por favor, envie uma correção >

Compartilhe
esta música

Ouça estações relacionadas a Charlie Brown Jr no Vagalume.FM

ÚLTIMAS

MIX DE MÚSICAS

ARTISTAS RELACIONADOS