• Vagalume
  • A-Z
  • Estilos
  • Top 100
  • Playlists
  • Rádio
  • Hot Spots
  • Notícias
  • PLAY

    Instrumento:
    Intro: C
    Verso:
      C
    E|-----------------------------|
    B|-------1-----1-----1-----1---|
    G|-----0-----0-----0-----0-----|   (2x)
    D|---2-----2-----2-----2-------|
    A|-3---------------------------|
    E|-----------------------------|
    
    
        Am
    E|-----------------------------|
    B|-------1-----1-----1-----1---|
    G|-----2-----2-----2-----2-----|
    D|---2-----2-----2-----2-------|
    A|-0---------------------------|
    E|-----------------------------|
    
    
        F             G
    E|-------------------------------|
    B|-------1-----1-------1-----1---|
    G|-----2-----2-------0-----0-----|
    D|---3-------------0-------------|
    A|-------------------------------|
    E|-1-------1-----3-------3-------|
    
    
    C
    I remember what you wore on the first day
    Am
    You came into my life
                   F
    And I thought hey
                   G                C
    You know this could be something
    C
    'Cause everything you do and words you say
    Am
    You know that it all takes my breath away
    F               G             C
    And now I'm left with nothing
    
                    F                    G
    So maybe it's true, that I can't live without you
                 F                 G
    Well maybe two is better than one
                 F           G
    There's so much time, to figure out the rest of my life
         Am               G               F
    And you've already got me coming undone
         Am               G                C
    And I'm thinking two, is better than one
    
    C
    I remember every look upon your face,
    Am
    The way you roll your eyes, the way you taste
    F             G
    You make it hard for breathing
    C
    'Cause when I close my eyes and drift away
    Am
    I think of you and everythings okay
    F             G                C
    And finally now, we're leaving
    
                    F                    G
    Then maybe it's true, that I can't live without you
                 F                 G
    Well maybe two is better than one
                 F           G
    There's so much time, to figure out the rest of my life
         Am               G               F
    And you've already got me coming undone
         Am               G
    And I'm thinking two, is better than one
    
    F   G Am   G F   G
    Yeah, yeah
    Solo:
    
    E|--------------15--------------------------------|
    B|--12-13-----------12-13---12-13-----10----------|
    G|----------------------------------------12------|
    D|------------------------------------------------|
    A|------------------------------------------------|
    E|------------------------------------------------|
    
    E|--------------15------10------------------------|
    B|-----12--13-------------------------12-13--12-13|
    G|------------------------------------------------|
    D|-------------------------9-10--9-10-------------|
    A|------------------------------------------------|
    E|------------------------------------------------|
    
    C
    I remember what you wore on the first day
    Am
    You came into my life
    F
    And I thought hey
    
               F                    G
    Maybe it's true, that I can't live without you
            F                 G
    Maybe two is better than one
                   F           G
    There's so much time, to figure out the rest of my life
         Am               G               F
    And you've already got me coming undone
    
    And I'm thinking
    
     F             G
    Oooh I can't live without you
                 F                  G
    'Cause baby two is better than one
                  F            G
    There's so much time, to figure out the rest of my life
                 Am            G                 F
    And I've figured out with all that's said and done
    Am     G               C      Am
    Two, is better than one
    
    F         G           C
    Two is better than one


    Letra enviada por Hyago Vieira
    Encontrou algum erro na letra? Por favor, envie uma correção »

    Comente
    user 300 caracteres restantes. Enviar

    Todas as letras de Boys Like Girls

    Publicidade
    Notícias
    Mais notícias »
    Hot Spot
    Top Músicas do Vagalume
    Top 100 »

    As informações deste site são postadas integralmente pelos usuários. É importante dizer que é possível que os dados estejam desatualizados ou incorretos, sendo assim, o Vagalume exime-se de qualquer responsabilidade sobre as informações publicadas.Caso haja interesse em remover ou alterar alguma informação, entre em contato conosco.


    É permitida somente a visualização no site das letras de músicas encontradas aqui, vedada sua reprodução através de quaisquer outros meios (Lei 9610/98).Todas as letras de músicas são propriedade dos seus respectivos autores e divulgadas somente para fins educacionais.All lyrics are property and copyright of their owners. All lyrics are provided for educational purposes only.