Página inicial > Punk Rock > B > blink-182 > Stay Together For The Kids (tablatura)

Stay Together For The Kids (tablatura)

blink-182


intro
e|--------------------------------------------|
b|--------------------------------------------|
g|--------------------------------------------|
d|--0-7-0-4-0-0-7-0-4-0-0-4-0-5-0-2-4-5-4-2-0-|
a|-5-5---5---4-4---4---2-2---2---0-0----------|
e|--------------------------------------------|

verse 1
e|---------------------------------------------|
b|---------------------------------------------|
g|---------------------------------------------|
d|---7--7--7--7--------------------------6---6-|
a|-55-55-55-55---7--7--7--7--7--7--7--7--7--7--|
e|-------------77-77-77-77-55-55-55-55-55-55---|


verse 2
e|--------------------------------------------------|
b|---------------------------------------5--5-------|
g|---7--7--7--7--7--7--7--7--7--7--7--7--6--6--6--6-|
d|---7--7--7--7--7--7--7--7--7--7--7--7--------7--7-|
a|-55-55-55-55--------------------------------------|
e|-------------77-77-77-77-55-55-55-55-55-55-55-55--|

chorus
e|-----------------------------------|
b|-----------------------------------|
g|-----------------------------------|
d|-5555555555555555-4444444444444444-|
a|-5555555555555555-5555555555555555-|
e|-3333333333333333-2222222222222222-|

interlude
e|----------------------------------------|
b|---3---3--3---3--3--3---3--3-3---3--3-3-|
g|--2---2------2--2------2--2-----2--2----|
d|-0---0---0------------------------------|
a|------------0--0--0------------0--0--0--|
e|----------------------3--3-3------------|

Ordem:
Intro x2
Verse1 x2
Chorus x4
Intro x2
Verse2 x2
Chorus x4
Interlude x2
Chorus play to end(fade out)

Tab By ¤«--=Å¢µ®ä=-»¤

Compositor: Tom Delonge And Mark Hoppus

Encontrou algum erro na letra? Por favor, envie uma correção >

Compartilhe
esta música

Ouça estações relacionadas a blink-182 no Vagalume.FM

ÚLTIMAS

MIX DE MÚSICAS

ARTISTAS RELACIONADOS