Página inicial > Punk Rock > B > blink-182 > Here's Your Letter (tablatura)

Here's Your Letter (tablatura)

blink-182


Intro: (Effected guitar part at very beggining not written)
e|--------------------------------------------------------------------------|
B|--------------------------------------------------------------------------|
G|---------7--7---7--7---4--4----------7--7---------------------------------|
D|--4--4---7--7---7--7---4--4---4--4---7--7---------------------------------|
A|--4--4---5--5---4--4---2--2---4--4---5--5---------------------------------|
E|--2--2------------------------2--2----------5-5-5-5-----------------------|

Second Section Of Verse 1: (00:24) Palm Muted In Backround
e|--------------------------------------------------------------------------|
B|--------------------------------------------------------------------------|
G|-----------------------6-4-7-7-7-7----------------------------------------|
D|-4--6--7-7-7-7-7-7--4--6-4-7-7-7-7----4-6-7~------------------------------|
A|-4--6--7-7-7-7-7-7--4--4-2-5-5-5-5----4-6-7~------------------------------|
E|-2--4--5-5-5-5-5-5--2---------------0-2-4-5~------------------------------|

Chorus:
e|--------------------------------------------------------------------------|
B|--------------------------------------------------------------------------|
G|----6----------7-7-7-7-----4--------7-7-7---------------------------------|
D|-7--6--2--6-6--7-7-7-7--7--4--2--6--7-7-7---------------------------------|
A|-7--4--2--6-6--5-5-5-5--7--6--2--6--5-5-5---------------------------------|
E|-5-----0--4-4-----------5-----0--4----------------------------------------|

Repeat Intro:
Repeat Verse on second part of Verse 2. (01:08)

Interlude:
e|--------------------------------------------------------------------------|
B|--------------------------------------------------------------------------|
G|-6-6-6-6--7-7-7-7------------------------7-7-7-7--------------------------|
D|-6-6-6-6--7-7-7-7-(X2)-4-4-4-4--6-6-6-6--7-7-7-7-(X2)---------------------|
A|-4-4-4-4--5-5-5-5------4-4-4-4--6-6-6-6--5-5-5-5--------------------------|
E|-----------------------2-2-2-2--4-4-4-4-----------------------------------|

Repeat Chorus: x2

Repeat Intro:

End On:
e|-----|
B|-----|
G|-----|
D|-4~--|
A|-4~--|
E|-2~--|

Fade Out.

Tab By ¤«--=Å¢µ®ä=-»¤

Compositor: Tom Delonge And Mark Hoppus

Encontrou algum erro na letra? Por favor, envie uma correção >

Compartilhe
esta música

Ouça estações relacionadas a blink-182 no Vagalume.FM

ÚLTIMAS

MIX DE MÚSICAS

ARTISTAS RELACIONADOS