Página inicial > Punk Rock > B > blink-182 > Boring (tablatura)

Boring (tablatura)

blink-182


Intro
e|----------------------------------------------------|
B|----------------------------------------------------|
G|----------------------------------------------------|
D|----------------------------------------------------|
A|-0-4-0-0-5-0-4p0---2-----5---2p0-0--0-4-0-0-5-0-4p0-|
E|-----------------0---0-0---0------------------------|

e|----------------------------------------------------|
B|----------------------------------------------------|
G|----------------------------------------------------|
D|----------------------------------------------------|
A|---2-----5---2p0-0-4-0-0-5-0-4p0---2-----5---2p0----|
E|-0---0-0---0---------------------0---0-0---0--------|

e|----------------------------------------------------------------|
B|----------------------------------------------------------------|
G|----------------------------------------------------------------|
D|----------------------------------------------------------------|
A|-0-4-0-0-5-0-4p0---2-----5---2p0-0-4-0-05-0-4p0---2-----5---2p0-|
E|-----------------0---0-0---0--------------------0---0-0---0-----|


Verse
e|----------------------------------------------------------------|
B|----------------------------------------------------------------|
G|------2--------2-----------------7-----------------2------------|
D|------2--------2--------4--------7--------2--------2------------|
A|-0-0--0---4-4--4--------4---5-5--5--------2---4-4--4------------|
E|-------------------2-2--2------------0-0--0---------------------|
*you don’t need nothing and I know that
*miss placed your values forgot the I’m

e|----------------------------------------------------------------|
B|----------------------------------------------------------------|
G|-----------7---------2---------2-------------------7------------|
D|-----------7---------2---------2---------4---------7------------|
A|------2p0--5----0-0--0----4-4--4---------4----5-5--5------------|
E|-0-0--------------------------------2-2--2----------------------|
*You wont even try. Don’t wait for me to help you,
*portance of bring right don’t sit there and act humble

Chorus
e|---------------------------------------------------------------|
B|---------------------------------------------------------------|
G|---------------2------------7--7----------6--6-----------------|
D|------2--------2------------7--7----7--7--6—-6--6—-6~~~~~------|
A|------2---4-4--4-------2p0--5--5----7--7--4--4--6—-6~~~~~------|
E|-0-0--0------------0-0--------------5--5--------4—-4~~~~~------|
*its to late for any of my advice.
*I’ve heard your story a thousand times


e|------------------------------------------------|
B|------------------------------------------------|
G|-----7-7-7--9-9-------6-6--------7-7-7-9-9-9-9--|
D|-(6)-7-7-7--9-9--7-7--6-6--6-6---7-7-7-9-9-9-9--|
A|-(6)-5-5-5--7-7--7-7--4-4--6-6---5-5-5-7-7-7-7--|
E|-(4)-------------5-5-------4-4------------------|
*no trust all I got is lies.

e|----------------------------------------------------------------|
B|----------------------------------------------------------------|
G|-------6--6--------7--7-7--9-9-9-9---------6--6-6---------------|
D|-7--7--6--6--6--6--7--7-7--9-9-9-9---7--7--6--6-6--6--6---------|
A|-7--7--4--4--6--6--5--5-5--7-7-7-7---7--7--4--4-4--6--6---------|
E|-5--5--------4--4--------------------5--5----------4--4---------|
*boring

Outro
E|---------------------------------------------------|
B|---------------------------------------------------|
G|-9--9--9--9--9-------------------------------------|
D|-9--9--9--9--9----7-7-7-6-6-6----------------------|
A|-7--7--7--7--7----------------7-7-7-7-7-7-7-7-7-7--|
E|---------------------------------------------------|

e|---------------------------------------------------|
B|---------------------------------------------------|
G|----------------------------------2--2-------------|
D|-------6-6-6----------------------2--2-------------|
A|-5-5-5-------7-7-7-0-0-0-0-0-0-0--0--0-------7-7-7-|
E|---------------------------------------------------|

E|---------------------------------------------------|
B|---------------------------------------------------|
G|-------6--6--------7--7-7--9--9--9-----------------|
D|-7--7--6--6--6--6--7--7-7--9--9--9--7--------------|
A|-7--7--4--4--6--6--5--5-5--7--7--7--7--------------|
E|-5--5--------4--4-------------------5--------------|

Tab By -=Acura=-

Compositor: Tom Delonge And Mark Hoppus

Encontrou algum erro na letra? Por favor, envie uma correção >

Compartilhe
esta música

Ouça estações relacionadas a blink-182 no Vagalume.FM

ÚLTIMAS

MIX DE MÚSICAS

ARTISTAS RELACIONADOS