• Vagalume
  • A-Z
  • Estilos
  • Top 100
  • Playlists
  • Rádio
  • Hot Spots
  • Notícias
  • Play
    PLAY

    intro
    e--------------------------|
    b--------------------------|
    g--------------------------|
    d-2--33-3-2-0----5-3-2-----|
    a-0------------3-----------|
    e--------------------------|
    this is whats played on the
    5th and 9th time(because the
    intro is played 9 times)
    e--------------------------|
    b--------------------------|
    g--------------------------|
    d-2--33-3-2-0----55-33-2~--|
    a-0-----------33-----------|
    e--------------------------|
    ^^ ^^ ^^ ^
    verse
    e-------------------------------------|
    b-------------------------------------|
    g-55555555----------55555555----------|
    d-55555555-77777777-55555555-77777777-|
    a-33333333-77777777-33333333-77777777-|
    e----------55555555----------55555555-|
    pre-chorus
    e----------------------------------------------|
    b----------------------------------------------|
    g----------10101010-77777777----------10101010-|
    d-10101010-10101010-77777777-10101010-10101010-|
    a-10101010--8-8-8-8-55555555-10101010--8-8-8-8-|
    e--8-8-8-8--------------------8-8-8-8----------|
    (cont)
    e---------------|
    b---------------|
    g-11111111-7777-|
    d-11111111-7777-|
    a-9-9-9-9--5555-|
    e---------------|
    chorus
    e------------------------------|
    b------------------------------|
    g------9999-10101010-----------|
    d-7777-9999-10101010-1010--b10-|
    a-7777-7777--8-8-8-8-1010------|
    e-5555----------------8-8------|
    bridge
    e---------------------------------|
    b---------------------------------|
    g-5555555-------------------------|
    d-5555555-77777777---7---7----9-7-|
    a-3333333-77777777----------------|
    e---------55555555-55--55--55-----|

    Tab By -=Acura=-

    Encontrou algum erro na letra? Por favor, envie uma correção »

    Comente
    user 300 caracteres restantes. Enviar

    Todas as letras de blink-182

    Publicidade
    Notícias
    Mais notícias »
    Hot Spot
    Top Músicas do Vagalume
    Top 100 »

    As informações deste site são postadas integralmente pelos usuários. É importante dizer que é possível que os dados estejam desatualizados ou incorretos, sendo assim, o Vagalume exime-se de qualquer responsabilidade sobre as informações publicadas.Caso haja interesse em remover ou alterar alguma informação, entre em contato conosco.


    É permitida somente a visualização no site das letras de músicas encontradas aqui, vedada sua reprodução através de quaisquer outros meios (Lei 9610/98).Todas as letras de músicas são propriedade dos seus respectivos autores e divulgadas somente para fins educacionais.All lyrics are property and copyright of their owners. All lyrics are provided for educational purposes only.