Página inicial > Punk Rock > B > blink-182 > Alone (tablatura)

Alone (tablatura)

blink-182


intro
e--------------------------|
b--------------------------|
g--------------------------|
d-2--33-3-2-0----5-3-2-----|
a-0------------3-----------|
e--------------------------|
this is whats played on the
5th and 9th time(because the
intro is played 9 times)
e--------------------------|
b--------------------------|
g--------------------------|
d-2--33-3-2-0----55-33-2~--|
a-0-----------33-----------|
e--------------------------|
^^ ^^ ^^ ^
verse
e-------------------------------------|
b-------------------------------------|
g-55555555----------55555555----------|
d-55555555-77777777-55555555-77777777-|
a-33333333-77777777-33333333-77777777-|
e----------55555555----------55555555-|
pre-chorus
e----------------------------------------------|
b----------------------------------------------|
g----------10101010-77777777----------10101010-|
d-10101010-10101010-77777777-10101010-10101010-|
a-10101010--8-8-8-8-55555555-10101010--8-8-8-8-|
e--8-8-8-8--------------------8-8-8-8----------|
(cont)
e---------------|
b---------------|
g-11111111-7777-|
d-11111111-7777-|
a-9-9-9-9--5555-|
e---------------|
chorus
e------------------------------|
b------------------------------|
g------9999-10101010-----------|
d-7777-9999-10101010-1010--b10-|
a-7777-7777--8-8-8-8-1010------|
e-5555----------------8-8------|
bridge
e---------------------------------|
b---------------------------------|
g-5555555-------------------------|
d-5555555-77777777---7---7----9-7-|
a-3333333-77777777----------------|
e---------55555555-55--55--55-----|

Tab By -=Acura=-

Compositor: Tom Delonge And Mark Hoppus

Encontrou algum erro na letra? Por favor, envie uma correção >

Compartilhe
esta música

Ouça estações relacionadas a blink-182 no Vagalume.FM

ÚLTIMAS

MIX DE MÚSICAS

ARTISTAS RELACIONADOS