Página inicial > Punk Rock > B > blink-182 > Adam's Song (tablatura)

Adam's Song (tablatura)

blink-182


Intro:

|------------------|------------------|------------------|------------------=
|------------------|------------------|------------------|------------------=
|------------------|------------------|------------------|------------------=
|----4--0-----4--0-|----4--0-----4--0-|----4--0-----4--0-|----4--0-----4--0-=
|-2--------2-------|-0--------0-------|------------------|------------------=
|------------------|------------------|-3--------3-------|-0--------3-------=



|------------------|------------------|------------------|------------------=
|------------------|------------------|------------------|------------------=
|------------------|------------------|------------------|------------------=
|----4--0-----4--0-|----4--0-----4--0-|----4--0-----4--0-|----4--0-----4--0-=
|-2--------2-------|-0--------0-------|------------------|------------------=
|------------------|------------------|-3--------3-------|-0--------3-------=


Verse: bati meio abafado mais naum tanto, sem distorçao
e|--------------------------------------------------------------------------|
B|--------------------------------------------------------------------------|
G|--------------------------------------------------------------------------|
D|-7-7-7-7-7-7-7-7----------------------------------------------------------|
A|-5-5-5-5-5-5-5-5--5-5-5-5-5-5-5-5----9-9-9-9-9-9-9-9-9----7-7-7-7-7-7-7-7-|
E|------------------3-3-3-3-3-3-3-3----7-7-7-7-7-7-7-7-7----5-5-5-5-5-5-5-5-|

Small Riff:

|------------------|------------------|
|------------------|------------------|
|-------0--------0-|-------0--------0-|
|----7--------7----|----9--------9----|
|-5--------5-------|-7--------7-------|
|------------------|------------------|

|------------------|------------------|
|------------------|------------------|
|------------------|------------------|
|----4--0-----4--0-|----4--0-----4--0-|
|-2--------2-------|------------------|
|------------------|-3--------3-------|

distorção:

e|----------------------------------------------------------------|
B|----------------------------------------------------------------|
G|-5-5-5-5-5-5-5-5/7-7-7-7-7-7-7----------------------------------|
D|-5-5-5-5-5-5-5-5/7-7-7-7-7-7-7--7-7-7-7-7-7-7--3-3-3-3-3-3-3-3--|
A|-3-3-3-3-3-3-3-3/5-5-5-5-5-5-5--7-7-7-7-7-7-7--3-3-3-3-3-3-3-3--|
E|--------------------------------5-5-5-5-5-5-5--1-1-1-1-1-1-1-1--|

Interlude:
Guitar
e|-------------------------------------------------||---------|
B|-------------------------------------------------||---------|
G|-0---0---0---0---0---0---0---0---0---0---0---0---||-0---0---|
D|---3---3---3---3---3---3---3---3---3---3---3---3-||---3---3-|
A|-------------------------------------------------||---------|
E|-------------------------------------------------||---------|


Piano Solo:
e|--8--8--8-10-8----8-10-8--13-13-12-10-8--8-10-8-----8-10-8---8--12-13-15--|
B|------------------------------------------------6----------8--------------|
G|--------------------------------------------------------------------------|
D|--------------------------------------------------------------------------|
A|--------------------------------------------------------------------------|
E|--------------------------------------------------------------------------|

Guitar
e|--------------------------------|
B|--------------------------------|
G|-------5----5-----5-----5-----5-|
D|-----5----5-----5-----5-----5---|
A|--3-----3-----3-----3-----3-----|
E|--------------------------------|

Encontrou algum erro na letra? Por favor, envie uma correção >

Compartilhe
esta música

Ouça estações relacionadas a blink-182 no Vagalume.FM

ÚLTIMAS

MIX DE MÚSICAS

ARTISTAS RELACIONADOS