• Vagalume
  • A-Z
  • Estilos
  • Top 100
  • Playlists
  • Rádio
  • Hot Spots
  • Notícias
  • PLAY

    Instrumento:
    Acordes
      E    D     G      C
     -----------------------
     -----------------------
     -------------13--------
     -14----12----12----10--
     -14----12----10----10--
     -12----10----------8---
                              
    
                                    Intro
              
                    -------------------------------------------
                    -------------------------------------------
                    -------------------------------------------
                    -12h14--12h14-12h14-------12-14-------12-14
                    -12h14--12h14 12h14 12-14-------12-14------
                    -12-----12----12---------------------------
     
     h-Hammer on
     verso 1
     
     E|-E|-E|-E|-E|-E|-E|-E|--E|-E|-E|-E|-E|-E|-E|-E|--D-D-D-D-D-D-D-D--G-D-----E|- 2x vezes
     
     
     E|----------------C-------D--------E|-E|-E|-E|-E|-E|-E|-E|--E|-E|-E|-E|-E|-E|-E|-E|- 2x vezes
     
     [INTRO] X4
     w/Verso 1
     Finished with my woman cause she couldn't help me with my mind
     People think I'm insane because I am frowning all the time
     
     w/Verso 1
     All day long I think of things but nothing seems to satisfy
     Think I'll lose my mind if I don't find something to pacify
     Can you help me? Are you for my brain? Oh yeah!
     [Verso 1] X2
     w/Verso 1
     I need someone to show me the things in life that I can't find
     I can't see the things that make true happiness I must be blind
     [Solo]
     [Verso 1] X2
     w/Figure 1
     Make a joke and I will sigh and you will laugh and I will cry
     Happiness I cannot feel and love to me is so unreal
     [pausa] X2
     w/Verso 1
     And so as you hear these words telling you now of my state
     I tell you to enjoy life I wish i could but it's too late
     Verso 1
     
    
                  
    Guitarra Solo(esse solo esta correto e so acertar as palhetadas)
    e|-------------------|-------------------|----------------------|
    B|-------------------|-------------------|----------------------|
    G|-12p9----9---------|-----9----9--------|----------------------|
    D|------12-----------|-------12---12-9---|----------------------|
    A|-------------------|-------------------|-10h12-10h12-107-7---|
    E|-------------------|-------------------|----------------------|
    
    e|------------------|------------------|---------------------------|
    B|------------------|------------------|-----8-10-10b12r10p8-10b12=|
    G|------------------|----------7h9-9---|-7-9-----------------------|
    D|------------------|------7h9---------|---------------------------|
    A|-10-7---7---------|-7h10-------------|---------------------------|
    E|------------------|------------------|---------------------------|
    
       
    e|-------------------|--------------------|-------------------|
    B|=r10p8-10--8-------|--------------17-15-|-17----17----17-15-|
    G|-------------9-9-9-|-7-9-9-9-9/16-------|-------------------|
    D|-------------------|--------------------|-------------------|
    A|-------------------|--------------------|-------------------|
    E|-------------------|--------------------|-------------------|
    
    e|-17b19-17b19-17b19r17p15-17p15----|-15p12----------------------------|
    B|-------------------------------17-|-------15-15p12-------------------|
    G|----------------------------------|----------------14-12-14-14p12----|
    D|----------------------------------|-------------------------------14-|
    A|----------------------------------|----------------------------------|
    E|----------------------------------|----------------------------------|
    
    e|--------------------------|-----------------------------------|
    B|--------------------------|-----------------------------------|
    G|-12----12-14b16r14-12-----|-14b16--12h14p12----12-------------|
    D|----14--------------------|-----------------14----14----------|
    A|--------------------------|--------------------------12h13h14-|
    E|--------------------------|-----------------------------------|
    
    e|-----------------------------|---------------------|-------------|
    B|-----------------------------|---------------------|-------------|
    G|-----------------------------|-----------12--------|-------------|
    D|-12--------------------------|-12--12-14----14-12--|-14-12----14-|
    A|-----14-12-14p12----12h13h14-|---------------------|-------------|
    E|-----------------15----------|---------------------|-------------|
    


    Encontrou algum erro na letra? Por favor, envie uma correção »

    Comente
    user 300 caracteres restantes. Enviar

    Todas as letras de Black Sabbath

    Publicidade
    Notícias
    Mais notícias »
    Hot Spot
    Top Músicas do Vagalume
    Top 100 »

    As informações deste site são postadas integralmente pelos usuários. É importante dizer que é possível que os dados estejam desatualizados ou incorretos, sendo assim, o Vagalume exime-se de qualquer responsabilidade sobre as informações publicadas.Caso haja interesse em remover ou alterar alguma informação, entre em contato conosco.


    É permitida somente a visualização no site das letras de músicas encontradas aqui, vedada sua reprodução através de quaisquer outros meios (Lei 9610/98).Todas as letras de músicas são propriedade dos seus respectivos autores e divulgadas somente para fins educacionais.All lyrics are property and copyright of their owners. All lyrics are provided for educational purposes only.