Página inicial > Heavy Metal > B > Black Sabbath > Behind The Wall Of Sleep (tablatura)

Behind The Wall Of Sleep (tablatura)

Black Sabbath


riff:1
Eb|------------------------------------------------------------------
Bb|------------------------------------------------------------------
Gb|------4----4--4--4--4------------------2----2--2--2--2------------
Db|------4----4--4--4--4------------------2----2--2--2--2------------
Ab|------2----2--2--2--2------------------0----0--0--0--0------------

Eb|------------------------------------------------------------------

riff:2
Eb|------------------------------------------------------------------
Bb|------------4--4--4p2---------------------------------------------
Gb|--4----4----------------4--2-----2--4----4------2-4---------------
Db|--4----4-----------------------4----4----4--34-----2b-0-2-0---0--
Ab|--2----2----------------------------2----2-------------------2----
Eb|------------------------------------------------------------------

riff:3
Eb|------------------------------------------------------------------
Bb|------------------------------------------------------------------
Gb|------0h2--0--0h2---------0h2--0----------------------------------
Db|----2-------------------2---------0h2-----------------------------
Ab|--0-------------------0-------------------------------------------

Eb|------------------------------------------------------------------

riff:4
Eb|------------------------------------------------------------------
Bb|------------------------------------------------------------------
Gb|-----------------------2------------------------------------------
Db|--0--0-------0h1p0-----2------------------------------------------
Ab|--------0h2---------2--0------------------------------------------

Eb|------------------------------------------------------------------
riff:5
Eb|------------------------------------------------------------------
Bb|------------------------------12----------------------------------
Gb|--4-------------------4-------14B---------------------------------
Db|--4------12~~~~-------4-------------------------------------------
Ab|--0h2-----------------0h2-----------------------------------------

Eb|------------------------------------------------------------------



played in this order

riff:1 x4
riff:2 x2
riff:1 x4 extra B at end of the 4 time let the b ring out
riff:3 x2
riff:4 x1
riff:3 x2
riff:4 x1
riff:5 x8
solo: anybody is welcome to fill in the solo I don't know it
riff:1 x4
riff:3 x2
riff:4 x2

then nib starts on my cd

Encontrou algum erro na letra? Por favor, envie uma correção >

Compartilhe
esta música

Ouça estações relacionadas a Black Sabbath no Vagalume.FM

ÚLTIMAS

MIX DE MÚSICAS

ARTISTAS RELACIONADOS