Página inicial > Heavy Metal > B > Black Sabbath > Am I Going Insane (tablatura)

Am I Going Insane (tablatura)

Black Sabbath


Tune down 1 1/2 steps (C#)



|---------------------|----------------------|---------------------
|---------------------|----------------------|---------------------
|--4---6---7^^6--4--|---2---4---6^^4---2--|---------------------
|---------------------|----------------------|---------------------
|---------------------|----------------------|---------------------
|---------------------|----------------------|---------------------


|--------------------------------
|--------------------------------
|--1----------2^^----1---2-------
|--------------------------------
|--------------------------------
|--------------------------------
|
|--------------------------------
|--------------------------------
|--------------------------------
|--2----------4^^---2---0--------
|--------------------------------
|--------------------------------


everybody's...
|--------------------------------------------------------------
|--------------------------------------------------------------
|--1------------2---------------4^^---2------------------------
|--2----------2-3---------------5^^---

Encontrou algum erro na letra? Por favor, envie uma correção >

Compartilhe
esta música

Ouça estações relacionadas a Black Sabbath no Vagalume.FM

ÚLTIMAS

MIX DE MÚSICAS

ARTISTAS RELACIONADOS