Página inicial > Rock Alternativo > A > Avril Lavigne > Nobody's Home (tablatura)

Nobody's Home (tablatura)

Avril Lavigne


Intro
Guitar 1: x2
e--0~~----------|-0~--------------|-0~----------|-0~------------|
b---------------|-----------------|-------------|---------------|
G---------------|-----------------|-------------|---------------|
D---------------|-----------------|-------------|---------------|
A---------------|-----------------|-------------|---------------|
E---------------|-----------------|-------------|---------------|

Guitar 2:
e------------0--|------------0--|-------------|---------------|
b--------0------|--------3------|----------0--|----------1--0-|
G------4---4----|------2---2----|------0------|------0--------|
D---------------|----0----------|----2---2----|----2---2------|
A----7----------|---------------|--3----------|--3------------|
E---------------|---------------|-------------|---------------|


Verse:
Guitar 1:
Em D C
I couldn't tell you why she felt that way, She felt it everyday.
Em D C
And I couldn't help her, I just watched her make the same mistakes again.

Guitar 2:
e------------0--|---------------|-------------|---------------|
b--------0------|---------------|----------0--|---------------|
G------4---4----|---------------|------0------|---------------|
D---------------|---------------|----2---2----|---------------|
A----7----------|---------------|--3----------|---------------|
E---------------|---------------|-------------|---------------|

e------------0--|---------------|-------------|---------------|
b--------0------|---------------|----------0--|----------1--0-|
G------4---4----|---------------|------0------|------0--------|
D---------------|---------------|----2---2----|----2---2------|
A----7----------|---------------|--3----------|--3------------|
E---------------|---------------|-------------|---------------|

Pre Chorus:
Guitar 1:
Em
What's wrong, what's wrong now?
D
Too many, too many problems.
C
Don't know where she belongs, where she belongs.

Guitar 2:
e------------0--|------------0--|-------------|-------------|
b--------0------|--------3------|----------0--|-----------0-|
G------4---4----|------2---2----|------0------|------0------|
D---------------|----0----------|----2---2----|----2---2----|
A----7----------|---------------|--3----------|--3----------|
E---------------|---------------|-------------|-------------|


Chorus:
Distorted Guitar 1:
Em G D D
e---------------|-----------------|-------------|---------------|
b---------------|-----------------|-------------|---------------|
G---------------|-----------------|--7----------|--7------------|
D--2------------|--5--------------|--7----------|--7------------|
A--2------------|--5--------------|--5----------|--5------------|
E--0------------|--3--------------|-------------|---------------|

Distorted Guitar 2:
Em G D F#
e---------------|-----------------|-------------|---------------|
b---------------|-----------------|-------------|---------------|
G---------------|-----------------|--7----------|--11-----------|
D--2------------|--5--------------|--7----------|--x------------|
A--2------------|--5--------------|--5----------|--9------------|
E--0------------|--3--------------|-------------|---------------|

Guitar 3:
Em G D
She wants to go home, but nobody's home.
D
It's where she lies, broken inside.
Em G D
With no place to go, no place to go to dry her eyes.
D
Broken inside.



Verse:
Guitar 1:
Em D C
Open your eyes and look outside, find a reason why.
Em D C
You've been rejected, and now you can't find what you left behind.

Guitar 2:
e------------0--|---------------|-------------|---------------|
b--------0------|---------------|----------0--|---------------|
G------4---4----|---------------|------0------|---------------|
D---------------|---------------|----2---2----|---------------|
A----7----------|---------------|--3----------|---------------|
E---------------|---------------|-------------|---------------|

e------------0--|---------------|-------------|---------------|
b--------0------|---------------|----------0--|----------1--0-|
G------4---4----|---------------|------0------|------0--------|
D---------------|---------------|----2---2----|----2---2------|
A----7----------|---------------|--3----------|--3------------|
E---------------|---------------|-------------|---------------|


Pre Chorus:
Guitar 1:
Em
Be strong, be strong now.
D
Too many, too many problems.
C
dont know where she belongs, where she belongs.

Guitar 2:
e------------0--|------------0--|-------------|---------------|
b--------0------|--------3------|----------0--|----------0----|
G------4---4----|------2---2----|------0------|------0--------|
D---------------|----0----------|----2---2----|----2---2------|
A----7----------|---------------|--3----------|--3------------|
E---------------|---------------|-------------|---------------|


Chorus:
Distorted Guitar 1:
Em G D D
e---------------|-----------------|-------------|---------------|
b---------------|-----------------|-------------|---------------|
G---------------|-----------------|--7----------|--7------------|
D--2------------|--5--------------|--7----------|--7------------|
A--2------------|--5--------------|--5----------|--5------------|
E--0------------|--3--------------|-------------|---------------|

Distorted Guitar 2:
Em G D
e---------------|-----------------|-------------|---------------|
b---------------|-----------------|-------------|---------------|
G---------------|-----------------|--7----------|--11-----------|
D--2------------|--5--------------|--7----------|--x------------|
A--2------------|--5--------------|--5----------|--9------------|
E--0------------|--3--------------|-------------|---------------|

Guitar 3:
Em G D
She wants to go home, but nobody's home.
D
It's where she lies, broken inside.
Em G D
With no place to go, no place to go to dry her eyes.
D
Broken inside.


Bridge:
Em D
Her feelings she hides.
C
Her dreams she can't find.
C
shes losing her mind
Em
She's fallen behind.
D
She can't find her place.
C
She's losing her faith
C
She's fallen from grace.
C
She's all over the place. Yeah oh oh

Chorus:
Distorted Guitar 1:
Em G D D
e---------------|-----------------|-------------|---------------|
b---------------|-----------------|-------------|---------------|
G---------------|-----------------|--7----------|--7------------|
D--2------------|--5--------------|--7----------|--7------------|
A--2------------|--5--------------|--5----------|--5------------|
E--0------------|--3--------------|-------------|---------------|

Distorted Guitar 2:
Em G D
e---------------|-----------------|-------------|---------------|
b---------------|-----------------|-------------|---------------|
G---------------|-----------------|--7----------|--11-----------|
D--2------------|--5--------------|--7----------|--x------------|
A--2------------|--5--------------|--5----------|--9------------|
E--0------------|--3--------------|-------------|---------------|

Guitar 3:
Em G D
She wants to go home, but nobody's home.
D
It's where she lies, broken inside.
Em G D
With no place to go, no place to go to dry her eyes.
D
Broken inside.

Outro:
Distorted Guitars:
Em G D D
e---------------|-----------------|-------------|---------------|
b---------------|-----------------|-------------|---------------|
G---------------|-----------------|--7----------|--7------------|
D--2------------|--5--------------|--7----------|--7------------|
A--2------------|--5--------------|--5----------|--5------------|
E--0------------|--3--------------|-------------|---------------|

Guitar 3:
Em G D
She's lost inside, lost inside...oh oh.
Em G D Em
She's lost inside, lost inside...oh oh yeah.

Encontrou algum erro na letra? Por favor, envie uma correção >

Compartilhe
esta música

Ouça estações relacionadas a Avril Lavigne no Vagalume.FM

ÚLTIMAS

MIX DE MÚSICAS

ARTISTAS RELACIONADOS