Página inicial > Rock Alternativo > A > Avril Lavigne > Freak Out (tablatura)

Freak Out (tablatura)

Avril Lavigne


Intro(guitar 1)
e--------------------------------|
b--------------------------------|
g---8-8--------------------------|
d---8-8---3-3---6-6---6-6--------|x2
a---6-6---3-3---6-6---6-6--------|
e---------1-1---4-4---4-4--------|

Intro(guitar 2)
e-------------------------------------------------|
b-------------------------------------------------|
g---8-10-8---8-10-8---8-10-8---10-12-10-8---------|x2
d-------------------------------------------------|
a-------------------------------------------------|
e-------------------------------------------------|


Verse
e--------------------------------|
b--------------------------------|
g---8-8--------------------------|
d---8-8---3-3---6-6---6-6--------|x4
a---6-6---3-3---6-6---6-6--------|
e---------1-1---4-4---4-4--------|

Pre Chorus
e------------------------------|
b------------------------------|
g------------------------------|
d---3--3--3--3-5--6--6--6-6----|
a---3--3--3--3-5--6--6--6-6----|
e---1--1--1--1-3--4--4--4-4----|


Chrous
e----------------------------------------------------------------------|
b----------------------------------------------------------------------|
g---8-8-8-8-8-8-8-8-----------------5-5-5-5-8-8-8-8--------------------|
d---8-8-8-8-8-8-8-8-8-8-8-8-8-8-8-8-5-5-5-5-8-8-8-8-6-6-6-6-6-6-6-6----|x2
a---6-6-6-6-6-6-6-6-8-8-8-8-8-8-8-8-3-3-3-3-6-6-6-6-6-6-6-6-6-6-6-6----|
e-------------------6-6-6-6-6-6-6-6-----------------4-4-4-4-4-4-4-4----|


Intro(guitar 1)
e--------------------------------|
b--------------------------------|
g---8-8--------------------------|
d---8-8---3-3---6-6---6-6--------|x2
a---6-6---3-3---6-6---6-6--------|
e---------1-1---4-4---4-4--------|


Intro(guitar 2)
e-------------------------------------------------|
b-------------------------------------------------|
g---8-10-8---8-10-8---8-10-8---10-12-10-8---------|x2
d-------------------------------------------------|
a-------------------------------------------------|
e-------------------------------------------------|


Verse
e--------------------------------|
b--------------------------------|
g---8-8--------------------------|
d---8-8---3-3---6-6---6-6--------|x4
a---6-6---3-3---6-6---6-6--------|
e---------1-1---4-4---4-4--------|


Pre Chorus
e--------------------------|
b--------------------------|
g--------------------------|
d---3-3-3-3-5-6-6--6--6----|
a---3-3-3-3-5-6-6--6--6----|
e---1-1-1-1-3-4-4--4--4----|


Chrous
e----------------------------------------------------------------------|
b----------------------------------------------------------------------|
g---8-8-8-8-8-8-8-8-----------------5-5-5-5-8-8-8-8--------------------|
d---8-8-8-8-8-8-8-8-8-8-8-8-8-8-8-8-5-5-5-5-8-8-8-8-6-6-6-6-6-6-6-6----|x2
a---6-6-6-6-6-6-6-6-8-8-8-8-8-8-8-8-3-3-3-3-6-6-6-6-6-6-6-6-6-6-6-6----|
e-------------------6-6-6-6-6-6-6-6-----------------4-4-4-4-4-4-4-4----|

Bridge
e----------------------|
b----------------------|
g----------------------|
d---10---8---6---------|
a---10---8---6---------|
e---8----6---4---------|

e--------------------------------------------|
b--------------------------------------------|
g--------------------------------------------|
d---10---8---6-6-6-6-6-6-6-8-8-8-8-8-8-8-8---|
a---10---8---6-6-6-6-6-6-6-8-8-8-8-8-8-8-8---|
e---8----6---4-4-4-4-4-4-4-6-6-6-6-6-6-6-6---|


Chrous
e----------------------------------------------------------------------|
b----------------------------------------------------------------------|
g---8-8-8-8-8-8-8-8-----------------5-5-5-5-8-8-8-8--------------------|
d---8-8-8-8-8-8-8-8-8-8-8-8-8-8-8-8-5-5-5-5-8-8-8-8-6-6-6-6-6-6-6-6----|x2
a---6-6-6-6-6-6-6-6-8-8-8-8-8-8-8-8-3-3-3-3-6-6-6-6-6-6-6-6-6-6-6-6----|
e-------------------6-6-6-6-6-6-6-6-----------------4-4-4-4-4-4-4-4----|

Pause at " Freak out let it go"

Intro(guitar 1)
e--------------------------------|
b--------------------------------|
g---8-8--------------------------|
d---8-8---3-3---6-6---6-6--------|x2
a---6-6---3-3---6-6---6-6--------|
e---------1-1---4-4---4-4--------|

Intro(guitar 2)
e-------------------------------------------------|
b-------------------------------------------------|
g---8-10-8---8-10-8---8-10-8---10-12-10-8---------|x2
d-------------------------------------------------|
a-------------------------------------------------|
e-------------------------------------------------|

Tab By ¤«--=Å¢µ®ä=-»¤

Encontrou algum erro na letra? Por favor, envie uma correção >

Compartilhe
esta música

Ouça estações relacionadas a Avril Lavigne no Vagalume.FM

ÚLTIMAS

MIX DE MÚSICAS

ARTISTAS RELACIONADOS